música
Buscador

Acorde de #Beautiful (Feat. Miguel) - Mariah Carey

Letra de #Beautiful (Feat. Miguel)

 Intro: 



e|------------------------------------|

B|------------------------------------|

G|------------------------------------|

D|--2~---4--4~---2--2/4--4/6--6\4--2--|

A|------------------------------------|

E|------------------------------------|



e|-----------------------------|

B|-----------------------------|

G|-----------------------------|

D|-----4--4~-------4--4\2--2---|

A|-----------------------------|

E|--5~-------5-5~--------------|



e|-----------------------------|

B|-----------------------------|

G|-----------------------------|

D|------4--4~---------4--4-----|

A|--2~---------2--2~--------2--|

E|-----------------------------|



e|-------------------------------|

B|-------------------------------|

G|-------------------------------|

D|-----6--6\4--4------4--4\2--2--|

A|--4~---------------------------|

E|-----------------5~------------|









E

Hop on the back of my bike

A

Let the good wind blow through your hair

B

With an ass like that



And a smile so bright

C#m

Oh, you're killing me

A

You know it ain't fair



E

Ride on



Through the middle of the night

A

Let the moonlight kiss your skin

B

When you dance like that



Your jeans so tight

C#m

Oh, you're killing me

A

Baby, do it again







E

You're beautiful

A

And your mind is ****ing beautiful

https://www.coveralia.com/acordes/-beautiful--feat--miguel--mariah-carey.php

B

And I can't pretend that

C#m A

That doesn't mean a thing to me, to me

E

You're beautiful

A

Good Lord, you're ****ing beautiful

B

And I can't pretend that

F#m G#/A - A (quick)

That doesn't mean a thing to me, to me

B

Yeah, Yeah









E

I like when you run red lights

A

Don't stop 'til you thrill me



Oh, how you thrill me

B

Always in control



How you do it, I don't know

F#m

But I don't care

G#/A - A (quick) B

Take me anywhere





E

'Cause it's beautiful

A

Ooh, you make me feel undressable

B

And I can't pretend

C#m A

That doesn't mean a thing to me, to me

E

You're beautiful

A

And your mind is ****ing beautiful

B

And I can't pretend that

C#m A

That doesn't mean a thing to me, to me

E

You're beautiful

A

Good Lord, you're ****ing beautiful

B

And I can't pretend that

F#m G#/A - A (quick)

That doesn't mean a thing to me, to me

B

Yeah, Yeah

E

Yeah





Repeat intro riff twice.

Letra subida por: Anónimo

El acorde de #Beautiful (Feat. Miguel) de Mariah Carey es una versión de la canción original realizada por colaboradores/usuarios de Coveralia.

¿Has encontrado algún error en esta página? Envíanos tu corrección del acorde