música
Buscador

Acorde de (I'm Not Your) Stepping Stone - Sex Pistols

Letra de (I'm Not Your) Stepping Stone





Intr: ( E G A C - E )

começa no refrão



E G A C E

I I I I I not your stepping stone

I I I I I not your stepping stone



(E G A C )

you're trying to make your mark in soc--ie--ty

Using all the tricks that you used on me

You're reading all those high fashion magazines

The clothes you're wearin' girl are causing public scenes



Faça o solo corrtemente:

e|--------11--------11------------

B|--13/12-----13/12---------------

G|--------------------------------



e|------8-----12-------------5-------

B|---10---10---------------4--------- repete 4x

G|-------------------2---3---------

D|--------------------------------

A|-----------------0-0------------

E|--------------------------------

https://www.coveralia.com/acordes/-i-m-not-your--stepping-stone-sex-pistols.php



e|--------10---------12-12-12------

B|--13/12-----13/12---------------

G|--------------------------------





( E G A C - E )

I I I I I'm not your stepping stone

I I I I I'm not your stepping stone

Not your stepping stone

Not your stepping stone



(E G A C )

When I first met you girl you didn't have no shoes

Now you're walking 'round like you're front page news

You've been awful careful 'bout the friends you choose

But you won't find my name in your book of who's who







Depois o Refrão

repete 2 vezes

termina com ( A G A C )





Letra subida por: Anónimo

El acorde de (I'm Not Your) Stepping Stone de Sex Pistols es una versión de la canción original realizada por colaboradores/usuarios de Coveralia.

¿Has encontrado algún error en esta página? Envíanos tu corrección del acorde