Quantcast
música
Buscador

Acorde de 11 O'Clock Tick Tock - U2

Letra de 11 O'Clock Tick Tock

Intro:(for the intro i have fun a sound what is similar too the intro tray this...)



E----------------------------5----------------------------------|

B---9-9--7-7--9--7---5--3--5-----9-9--7-7----5--3-5-------------|

G---9-9--7-7--9--7---------------9-9--7-7-----------2-----------|

D---------------------------------------------------------------|

A---------------------------------------------------------------|

E---------------------------------------------------------------|



Or this:



E------------------------------7------------------------------------------|

B---9-9--7-7--9-9-7-7---------------9-9--7-7--9-9--7-7--------------------|

G---9-9--7-7--9-9-7--7--9--7--9-----9-9--7-7--9-9--7-7---9-7-9------------|

D--------------------------------------------------------------7----------|

A-------------------------------------------------------------------------|

E-------------------------------------------------------------------------|



Later plays this:(*=Harmonics)RIFF 1



E---------------------12--0--15--14--------------------------------------|

B0--12(*)----0--10---------------------12------0--12(*)-------------12---|

G----------------------------------------------------------------9-------|

D-------------------------------------------------------------9----------|

A------------------------------------------------------------------------|

E------------------------------------------------------------------------|



E------------12-----------------|

B-------10----------------------|

G---9--------------------9s/7---|

D-------------------------------|

A-------------------------------|

E-------------------------------|



Now this:RIFF 2 (where Bono sings "hear the children crying..")



E------------------------------------------------------------------------|

B---------12---------10----------12-------------12--10-------------------|

G----9----------9-----------9------------9-----------------9-------------|

D------------------------------------------------------------------------|

A------------------------------------------------------------------------|

E------------------------------------------------------------------------|



E-----------------------------------------14----------------15--14-------|

B-----------17-------------15-----------------------------------------17-|

G----14------------14-------------14---------------14--------------------|

D------------------------------------------------------------------------|

A------------------------------------------------------------------------|

E------------------------------------------------------------------------|



Edge varies this next part but it will give you the basic idea. Here is a

slight variation which I actually prefer:



E-------------------------------------------------------------------------|

B----12-------10---------12------------------------------17--------15-----|

G9--------9---------9----------9--12--11--9----------14-------14-------14-|

D-------------------------------------------------------------------------|

A-------------------------------------------------------------------------|

E-------------------------------------------------------------------------|



E----14--------------15--14-----------|

B------------------------------15-----|

G--------------14---------------------|

D-------------------------------------|

A-------------------------------------|

E-------------------------------------|



repeat the intro riff and the riff 2 then the above chorus harmonics,then the

main riff again and then this:



RIFF 3



E----------------------0-----------------------------0------0------0---|

B------------------------0------------------------------0-----0------0-|

G----------------------------------------------------------------------|

D5--7--5--4--0--2---------------5--7--5--4--0--2-----------------------|

A----------------------------------------------------------------------|

E----------------------------------------------------------------------|

https://www.coveralia.com/acordes/11-o-clock-tick-tock-u2.php



Now the solo is hard to tab this part but use this guide...



E-----------------------------------------------------------------------|

B12--12--12--10--10--10--10--10------------10--------10------10---------|

G14--14--14--12--12--11--12--11----9-------12--------11-------12----11--|

D-----------------------------------------------------------------------|

A-----------------------------------------------------------------------|

E-----------------------------------------------------------------------|



E-----------------------17--17--17--17----------17--17--17--17--15--15-15-|

B10--10--10--10--10-----20--20--20--20--19--19--19--19--19--19--17--17-17-|

G12--12--11--12--12-------------------------------------------------------|

D-------------------------------------------------------------------------|

A-------------------------------------------------------------------------|

E-------------------------------------------------------------------------|



E-15---14-------12-------12-----17--17--17--17--17--17--17--17--17--17--17-17-|

B-17---15---12-------12---------20--20--19--20--19--19--20--19--20--19--20-19-|



E--17--17--17--17--17s/--15--15--14--14--12--12--7--7--5--5--5s/7--7---------|

B--20--20--19--19--19s/--17--17--15--15--12--12--8--8--5--5--5s/8--8---------|

G----------------------------------------------------------------------------|

D----------------------------------------------------------------------------|

A----------------------------------------------------------------------------|

E----------------------------------------------------------------------------|



Now plays this harmonics (This is a guide)



E-------12---------------------------------------------------------------|

B------------12------------------------------------------7---------------|

G-----------------12------------------------7------------------7---------|

D----------------------12------------7------------7----------------------|

A--------------------------------7---------------------------------------|

E------------------------------------------------------------------------|



I'm pretty sure about the next bit:



E---------12---------------12--------------------12-----------------7-------|

B7------------------------------7-------7-----------------------------7-----|

G----7------------------------------7------7------------------7----------7--|

D-------------7-----7---------------------------------7--7------------------|

A---------------------------------------------------------------------------|

E---------------------------------------------------------------------------|



Then RIFF 3 is played.Now for the second solo this use structures for the first one.And

outro or end of the song play this:



E-------------------------------|

B-------------------------------|

G-------------------------------| and I think the final chord is Em.

D----7--7--5--4--4h5--5---------|

A-------------------------------|

E-------------------------------|



Okey this is all my friend no bad for mi second tab ah.



Have fun¡¡¡ Shadow-Guitarrist



Hola baires che canten che salteen che bailen vamos¡¡¡ Bono Popmart Tour 98 live in Buenos Aires.



11 o'clock tick tock(intro live)

Band.U2



Okey i forget this.The intro in the live versions:



Palm mute........................... harmonics....

E--------------------------------------------------------------|

B------------------------------------------------12---12-------|

G-------------------------------------------12---12---12-------|

D-------------------------------------------12-----------------|

A--7--7--5--5--7--7--5--5--7--7--5--5--------------------------|

E--0--0--0--0--0--0--0--0--0--0--0--0--------------------------|



Okey now the song is complete.Have fun



Shadow-Guitarrist.

Discos en los que aparece este acorde: Under A Blood Red Sky , No Surrender , Boy (Deluxe Edition) , , Live From Boston 1981

El acorde de 11 O'Clock Tick Tock de U2 es una versión de la canción original realizada por colaboradores/usuarios de Coveralia.

¿Has encontrado algún error en esta página? Envíanos tu corrección del acorde