música
Buscador

Acorde de Alternative Ulster - Stiff Little Fingers - Greatest Irish Bands



Key =

r - ring

/ - slide

x - palm mutted



Intro

|------------------------------------------------------------|

|--2---------------------------------------------------------|

|--2---2--11-11-11-9-4--4--11-11-11-9-12--12--11-11-11-9-4---|

|--0---0--0--0--0--0-0--0--0--0--0--0-0---0---0--0--0--0-0---|

|------------------------------------------------------------|

|--r----/------------r----/------------r----/------------r---|



|--------------------------------|

|--------------------------------|

|--4--11-11-11-9-12--12-12--11---|

|--0--0--0--0--0-0---0--0----0---|

|--------------------------------|

|---/------------r----------r----|



Then

D, A, | Bm, G x4



D A Bm G

There's nothin' for us in Belfast

D A Bm G

The Pound's so old it's a pity

D A Bm G

OK, there's the trident in Bangor

D A Bm G

And then walk back to the city

A G

We ain't got nothin' but they don't really care

They don't even know you know

A

They just want money

G

We can take it or leave it

A NC

What we need is



[Chorus]

D** C G

An Alternative Ulster

C G

Grab it and change it, it's yours

D** C G

Get an Alternative Ulster

C G

Ignore the bores and their laws

D** C G

Get an Alternative Ulster

C G

Be an anti-security force

D** C G

Alter your native Ulster

C G D

Alter your native land



Instrumental

D, A, Bm, G x2



D A Bm G

Take a look where you're livin'

D A Bm G

https://www.coveralia.com/acordes/alternative-ulster-stiff-little-fingers.php

You got the Army on your street

D A Bm G

And the RUC dog of repression

D A Bm G

Is barking at your feet

A G

Is this the kind of place you wanna live?

Is this where you wanna be?

A G

Is this the only life we're gonna have?

A NC

What we need is



Chorus As per Chorus 1



Bm A G

They say they're a part of you

A

But that's not true you know

Bm A G

They say they've got control of you

A

And that's a lie you know

Bm A G

They say you will never be

C G C G C A

Free, free, free



Instrumental - Just like the intro



Get an

D** C G G, G, G

Alternative Ulster

D** C G G, G, G

Alternative Ulster

D** C G G, G, G

Alternative Ulster

D** C G

Alternative Ulster



D*, C, G, D*,, C, G, D*



Solo

|-------------------------------------------------------------------------|

|-------------------------------------------------------------------------|

|--11-11-11-9-4--x-x--x-x--x-x--x-x--4-11-11-11-9-12--x-x--x-x--x-x--x-x--|

|--0--0--0--0-0--x-x--x-x--x-x--x-x--0-0--0--0--0--0--x-x--x-x--x-x--x-x--|

|-------------------------------------------------------------------------|

|-------------------------------------------------------------------------|



|------------------------------------------------------------------------------|

|------------------------------------------------------0--0--0--0--0--0--0--0--|

|--12-11-11-11-9-4-x-x--x-x--x-x--x-x--4-11-11-11-9-12-12-12-12-12-12-12-12-12-|

|--0--0--0--0--0-0-x-x--x-x--x-x--x-x--0-0--0--0--0-0--0--0--0--0--0--0--0--0--|

|------------------------------------------------------------------------------|

|------------------------------------------------------------------------------|



Chords

D5 xx023x D** 11f xx011xx Dsus2 9f xx09xx G/D 4f xx04xx

Dsus4 12f xx012xx D xx0232 A x03330 Bm x24432 G 3f 355433

D* 5f x5888x C 3f x3555x







Letra subida por: Anónimo

El acorde de Alternative Ulster - Stiff Little Fingers de Greatest Irish Bands es una versión de la canción original realizada por colaboradores/usuarios de Coveralia.

¿Has encontrado algún error en esta página? Envíanos tu corrección del acorde