música
Buscador

Acorde de Aqui É Seu Lugar - Luan Santana

Letra de Aqui É Seu Lugar

(introdução) G D A5 E F# 



( B E B F# B E B F# B )

(solo)

E|------------------------------------|

B|-----4-3\4----4-4-4-7-7-7-7-5-4-----|

G|---4--3\4----------------------4----|

D|------------------------------------|

A|------------------------------------|

E|------------------------------------|



E|------------------------------------|

B|-----4-3\4----4-4-4-7-7-7-7-5-4-----|

G|---4--3\4-------------------------6-|

D|------------------------------------|

A|------------------------------------|

E|------------------------------------|



E|------------------------------------|

B|-----4-3\4----4-4-4-7-7-7-7-5-4-----|

G|---4--3\4-----------------------4---|

D|------------------------------------|

A|------------------------------------|

E|------------------------------------|



E|------------------------------------|

B|------5-5-5-5-7-5-4---4-4-4---------|

G|-4-4-4----------------------6-4-6---|

D|------------------------------------|

A|------------------------------------|

E|------------------------------------|



E|-----------------------4-6-4-7------|

B|-----------------5-7-9--------------|

G|-6-6-6-4-3--4-6---------------------|

D|------------------------------------|

A|------------------------------------|

E|------------------------------------|



G#m D#m

Não dá pra entender esse meu coração

G#m D#m

mudou de amizade pra louca paixão

C#m7 D#m

então foi dessa forma que eu percebi

E F# G° G#m

não quero te assustar ou me iludir (não dá mais)

G#m D#m G#m

não dá pra enganar ou querer fugir (não dá mais)

G#m D#m

Se esse sentimento vai crescendo em mim

C#m7 D#m

Mais tenho que encarar essa decisão

E F#

De me confessar e abrir meu coração



B E

É pra voce que eu mando flores todas as manhas viu?

B F#

É voce que faz meu coração bater a mais de mil

B E

Já nao sei o que mais eu faço pra te conquistar

B

Se liga vem depressa aqui e seu lugar

F# (G D A E Bb9)

nesse coração que so quer te amar



D#m B9

deixou digitais em mim

F# C#9

https://www.coveralia.com/acordes/aqui-e-seu-lugar-luan-santana.php

agora vem pedindo que esqueca

D#m B9

deixou digitais em mim

F# C#9

procure alguem melhor que mereça



( D#m B F# Bb7 ) (2x)



D#m

Por que você me deixa tão solto

B9

vou perdendo a cabeça

C#9 D#m

se estou longe de ti

D#m

eu fico desenhando o passado

B9 C#9 D#m

tudo esta atrasado sem você por aqui

B9 F#

me beija sem medo de dizer

C#9 D#m

estou a dois passos posso tocar em ti

B9 F#

e cara a cara entender

C#9 Bb7

meu mundo girando so entorno de ti



D#m B9

deixou digitais em mim

F# C#9

agora vem pedindo que esqueca 2x

D#m B9

deixou digitais em mim

F# C#9

procure alguem melhor que mereca



( D#m F# C# D#m ) (2x)



D#m

Por que você me deixa tão solto

B

vou perdendo a cabeça

C#9 D#m

se estou longe de ti

D#m

eu fico desenhando o passado

B C#9 D#m

tudo esta atrasado sem você por aqui

B9 F#

me beija sem medo de dizer

C#9 D#m

estou a dois passos posso tocar em ti

B F#

e cara a cara entender

C#9 Bb

meu mundo girando so entorno de ti



(repete Refrão 2x)





se hoje eu te liguei

D#m B Bb

foi somente pra dizer

B

que uma parte de mim

C# (F#)

quer que eu te esqueça.





Letra subida por: Anónimo

Discos en los que aparece este acorde: To De Cara

El acorde de Aqui É Seu Lugar de Luan Santana es una versión de la canción original realizada por colaboradores/usuarios de Coveralia.

¿Has encontrado algún error en esta página? Envíanos tu corrección del acorde