música
Buscador

Acorde de Ay Amor - Yuri

Letra de Ay Amor

(C IX)= cejilla en el traste 9





(C IX) B

e *--------9--------------9--------9-|-------9--------------9--------9--|

B *------7---7-----9-------------9---|-----7---7-----9-------------9----|

G *----6-------6------6-------11-----|---6-------6------6-------11------|

D *--------------8------8---9--------|-8-----------8------8---9---------|

A *--9-------------------------------|----------------------------------|

E *----------------------------------|----------------------------------|



F# B F# B

e *--------9--------------9--------9-|-------9--------------9--------9--|

B *------7---7-----9-------------9---|-----7---7-----9-------------9----|

G *----6-------6------6-------11-----|---6-------6------6-------11------|

D *--8-----------8------8---9--------|-8-----------8------8---9---------|

A *----------------------------------|----------------------------------|

E *----------------------------------|----------------------------------|



F# B F# B

Te encuentro de nuevo inquieto y no puedo

e *--------9--------------9--------9-|-------9--------------9--------9--|

B *------7---7-----9-------------9---|-----7---7-----9-------------9----|

G *----6-------6------6-------11-----|---6-------6------6-------11------|

D *--8-----------8------8---9--------|-8-----------8------8---9---------|

A *----------------------------------|----------------------------------|

E *----------------------------------|----------------------------------|



F#

e *--------9----------|

B *------7---7--------|

G *----6-------6------|

D *--8-----------8----|

A *----------------9--|

E *-------------------|





D#m C# B C# C# B C#

Fingir que da lo mismo tu presencia frente a mi, frente a mi

B F# B F# B F#

Miradas casuales, que aumentan latidos

D#m C# B C# C# B C# B C#

El tiempo se hace corto si te tengo junto a mi, junto a mi





D#m C# B

Mas no se como explicarte de mi amor

D#m C#

Como decirte que hace tiempo

B C# F#

Me robaste el corazón, mi corazón





https://www.coveralia.com/acordes/ay-amor-yuri.php

B C# F#

Ay amor, no se que tiene tu mirar

B C# F#

Que día a día me conquista mas y mas

B C# F#

Ay amor cuanto daría por romper

B C# F#

Ese misterio que me atrapa sin querer

B C# D#m B C# F#

Ay amor...



B F# B F# B F#

Mis días se alargan cuando no te miro

D#m C# B C# C# B C# B C#

Y busco entre mil cosas una que me hable de ti, sólo de ti





D#m C# B

Mas no se como explicarte de mi amor

D#m C#

Como decirte que hace tiempo

B C# F#

Me robaste el corazón, mi corazón



B C# F#

Ay amor, no se que tiene tu mirar

B C# F#

Que día a día me conquista mas y mas

B C# F#

Ay amor cuanto daría por romper

B C# F#

Ese misterio que me atrapa sin querer





B C# D#m

Ay amor, no se que tiene tu mirar

B C# F#

Que día a día me conquista mas y mas

B C# D#m

Ay ay amor cuanto daría por romper

B C# F#

Ese misterio que me atrapa sin querer



B C# F#

Ay amor, no se que tiene tu mirar

B C# F# B F# B F#

Que día a día me conquista mas y mas...









Letra subida por: Anónimo

Discos en los que aparece este acorde: Mi Tributo Al Festival , Ay Amor (Cd Single)

El acorde de Ay Amor de Yuri es una versión de la canción original realizada por colaboradores/usuarios de Coveralia.

¿Has encontrado algún error en esta página? Envíanos tu corrección del acorde