música
Buscador

Acorde de Baby, I Love Your Way - Big Mountain

Letra de Baby, I Love Your Way



Intro



E B C#m A

e|--0------2------4------5-----|

B|--0------4------5------5-----|

G|--1------4------6------6-----|

D|--2------4------6------7-----|

A|--2------2------4------7-----|

E|--0--------------------5-----|



Ohh baby i love your way... everyday...



E B C#m A

Ohh baby i love your way... everyday...







Verse 1:



E B C#m A Am

e|--0------2------4------5------5-----|

B|--0------4------5------5------5-----|

G|--1------4------6------6------5-----|

D|--2------4------6------7------7-----|

A|--2------2------4------7------7-----|

E|--0--------------------5------5-----|



E B C#m

Shadows grow so long before my eyes



A Am

And they're moving across the page



E B C#m

Suddenly the day turns into night



A Am

far away from the city



Pre-Chorus:



Abm C#m A B

e|--4------4------5------7-----|

B|--4------5------5------7-----|

G|--4------6------6------8-----|

D|--6------6------7------9-----|

A|--6------4------7------9-----|

E|--4-------------5------7-----|



Abm C#m

But don't hesitate



A B

Cause your love won't wait.







Chorus:



E B F#m A

e|--0------4------2------7-----|

B|--0------5------2------7-----|

G|--1------6------2------8-----|

D|--2------6------4------9-----|

A|--2------4------4------9-----|

E|--0-------------2------7-----|











E B F#m A

Ohh baby i love your way... everyday...



E B F#m A

i wanna tell you i love you way..everyday...



E B F#m A

i wanna be with you night and day...



https://www.coveralia.com/acordes/baby--i-love-your-way-big-mountain.php

Verse 2:



E B C#m

Moon appears to shine and light the sky



A Am

With the help from some firefly



E B C#m

Wonder how they have the power to shine, shine, shine.



A Am

I can see them under the pine.



Pre-Chorus:



Abm C#m

But don't hesitate



A B

Cause your love won't wait.



Chorus:



E B F#m A

Ohh baby i love your way... everyday...



E B F#m A

i wanna tell you i love you way..everyday...



E B F#m A

i wanna be with you night and day...



Solo Rythem: (*Not sure)



E B C#m A

e|--0------2------4------5------|

B|--0------4------5------5------|

G|--1------4------6------6------|

D|--2------4------6------7------|

A|--2------2------4------7------|

E|--0--------------------5------|



Verse 3:



E B C#m

I can see the sunset in your eyes



A Am

Brown and grey and blue besides



E B C#m

Clouds are stalking islands in the sun.



A Am

I wish I could buy one, out of season.



Pre-Chorus:



Abm C#m

But don't hesitate



A B B C

Cause your love won't wait.



Chorus:



F C Gm Bb

Ohh baby i love your way... everyday...



F C Gm Bb

i wanna tell you i love you way..everyday...



F C Gm Bb

i wanna be with you night and day...











Letra subida por: Anónimo

Discos en los que aparece este acorde: Unity , The Best Of Big Mountain ,

El acorde de Baby, I Love Your Way de Big Mountain es una versión de la canción original realizada por colaboradores/usuarios de Coveralia.

¿Has encontrado algún error en esta página? Envíanos tu corrección del acorde