música
Buscador

Acorde de Bring On The Night - Bruce Springsteen

Letra de Bring On The Night

Tuning:EADGBE

Intro/Verse:

    D    A   Em    G                      "...dreams of Mary
e|----------------------------------------------0-------------------------------|
B|-7-7--5-5--8-8--12-12--7--5-5--8-8--12-12-----0-------------------------------|
G|-7-7--6-6--9-9--12-12--7--6-6--9-9--12-12-----0-------------------------------|
D|-7-7--7-7--9-9--12-12--7--7-7--9-9--12-12-----2-------------------------------|
A|----------------------------------------------2-------------------------------|
E|----------------------------------------------0-------------------------------|

D                    A             Em              G         D
I lie in bed but baby I can't sleep no matter how hard I try
                          A             Em           G            Em
There's something bad baby, wrong with me whenever I close my eyes
                   G            Em                 D        A     Em
The dreams of Mary keep me awake with every little curve in place
            F#m                        G
When I walk home in the daybreak, I pray
                A
Come back home, baby, won't you give me
G                    A
Darling bring on the night
        G                     A
Oh yeah darling, bring on the night
       G                     A
Oh, now darling, bring on the night

D                         A                Em                     G                      D
I walk the street, I'm lookin' for romance I end up stumblin' in some stupid halftrance
                A                          Em            G                  Em
As I watch the lovers mix with circumstance we watch the disco dancers dance
                      G               Em                          D       A
I look for connection in some new eyes but for protection they're tranquilized
Em                 F#m                          G
Forbidding close inspection of who's tellin' who
                   A                             G
Forbidding close inspection of who's tellin' who lies
             A
Bring on the night
        G                     A
Oh yeah darling, bring on the night
       G                     A     D
Oh now darling, bring on the night

Am              Em          G                 D              Am
Is it as simple as it seems? I don't know what I'm doin' here
              Em           G               D           Am       D   A
Is it as simple as it seems? Is it as simple as I fear? Well if I'm right

Sax Solo:

G A (x4)

e|-10-10-10-7----7---------7----10-7------------------------------------------|
B|------------10---10-7-10-----------10-7-10----------------------------------|
G|--------------------------------------------9-9--7---7----------------------|
D|---------------------------------------------------9------------------------|
A|----------------------------------------------------------------------------|
E|----------------------------------------------------------------------------|


e|-10-10-10-7----7-----------------------10--10-9-7-5h7-----------------------|
B|------------10---10-7-10---7--10-7-10---------------------------------------|
G|-------------------------9--------------------------------------------------|
D|----------------------------------------------------------------------------|
A|----------------------------------------------------------------------------|
E|----------------------------------------------------------------------------|

                      G               Em                          D       A
I look for connection in some new eyes but for protection they're tranquilized
Em                 F#m                          G
Forbidding close inspection of who's tellin' who
                   A
Forbidding close inspection of who's tellin' who
                          G
Baby of who's tellin' who lies

             A
Bring on the night
        G                     A
Oh, yeah darling, bring on the night
       G                  A
Oh, now baby, bring on the night
       G                    A
Oh, now darling bring on the night
          G                     A
Come home, baby, bring on the night
       G                    A
Oh, now darling bring on the night

D


Letra subida por: Anónimo

Discos en los que aparece este acorde: Tracks Cd 1 Y 3

El acorde de Bring On The Night de Bruce Springsteen es una versión de la canción original realizada por colaboradores/usuarios de Coveralia.

¿Has encontrado algún error en esta página? Envíanos tu corrección del acorde