música
Buscador

Acorde de Calling Dr. Love - Kiss

Letra de Calling Dr. Love

Intro: ( Eb  F# Db  Ab ) 4x 



Eb F#

You need my love baby oh so bad

Db Ab

You're not the only one I've ever had

Eb F#

And if I say I wanna set you free

F# Db B Db

Don't you know you'll be in misery



Refrão 1:

Eb Db

They call me Doctor Love

Eb

They call me Doctor Love

Db

Calling Doctor Love

Eb

I've got the cure you're thinking of

B Db

Calling Doctor Love



Eb F# Db Ab



Eb F#

And even though I'm full of sin

Db Ab

In the end you'll let me in

Eb F#

You let me through there's nothing you can do

Db Ab

You need my love and don't you know it's true



Eb F#

So baby please get on your knees

Db Ab

There are no bills there are no fees

Eb F#

Baby I know what your problem is

F# Db B Db

The first step of the cure is a kiss



Refrão 2:

Eb Db

So call me Doctor Love

Eb

https://www.coveralia.com/acordes/calling-dr--love-kiss.php

They call me Doctor Love

Db

Calling Doctor Love

Eb

I'm your doctor of love

B Db

Calling Doctor Love



Solo da bateria: Eb



Refrão 1



Solo de guitarra: solo

e|--------------------------------------------------------------------------|

B|--------------------------------------------------------------------------|

G|--------------------------------------------------------------------------|

D|--------------------------------------------------------------------------|

A|---5/7--5/7--5/7--5/7--5/7--5/7--5/7--7/5/0-7/5/0-7/5/0-7/5/0-7/5/0-------|

E|--------------------------------------------------------------------7-6-5-|





e|---------------------------------------------------------12---------12-----|

B|------------------------------------12---------------------15/12-------15/1|

G|-------14~--14/12/14--12/14/12----14---14/12/14/12----14b--------14b-------|

D|------------------------------14------------------14-----------------------|

A|---------------------------------------------------------------------------|

E|3b~~-----------------------------------------------------------------------|



e|--------------------------17b(20)--------------------------15--------------|

B|2-----15--12/15/12---12-----------17/15-15b---15--12-----------------------|

G|--14b-------------14b---------------------------------14b~~~~~14--14-12--14|

D|---------------------------------------------------------------------------|

A|---------------------------------------------------------------------------|

E|---------------------------------------------------------------------------|





e|--------------------------------------------------------------------------|

B|--------------------------------------------------------------------------|

G|b/14-12--12---11/12/11/12/11-------------7b-------------------------------|

D|-------14--------------------12-14b~~-------9--7/9/7/5--7--5/7/5--5--7b~~~|

A|----------------------------------------------------------------7---------|

E|--------------------------------------------------------------------------|

(Refrão (várias vezes até acabar)





Letra subida por: Anónimo

¿Has encontrado algún error en esta página? Envíanos tu corrección del acorde