Quantcast
música
Buscador

Acorde de Cold Gin [Live] - Kiss

Letra de Cold Gin [Live]



Verse:



A5 G5 A5 G5 D5 G5 D5 G5 A5

1. My heater's broke and I'm so tired.

It's time to leave and get another quart.



G5 A5 G5 D5 G5 D5 G5 A5

I need some fuel to build a fire.

Around the corner at the liquor store.



G5 A5 G5 D5 G5 D5 G5 A5

The girl next door, her lights are out, yeah.

The cheapest stuff is all I need,



G5 A5 G5 D5 G5 D5 G5 A5

The landlord's gone, I'm down and out.

To get me back on my feet again.



G5 D5 G5 D5 G5 A5 E5

Oo, It' cold gin time again.



G5 D5 E5 G5 D5

You know it'll always win.



E5 G5 D5 E5

Cold gin time again. You know it's the only thing that keeps us together.



A E7 A E7 A E7 A E7 A E7 _____________

|1.

___________A E7 A E7 A E7 A E7 A | E7 A E7

| |2.

| A E7 A | E7 A E7 A E7

2.it's



G5 G C G C



|-------|---------0-0--|------------------------|--------0-0----|

|-------|--0-0----1-1--|------------------------|-0-0----1-1----|

|-------|--0-0----0-0--|------------------------|-0-0----0-0----|

|-------|--0-0---------|------------------------|-0-0-----------|

|-------|---------3-3--|-3--3-2-3-2--3--3-2-3---|--------3-3----|

|-------|--3-3---------|----------------------2-|-3-3-----------|





_____________________________________________________________

https://www.coveralia.com/acordes/cold-gin--live--kiss.php

|1. |2.

| | A D

|-----------------------------|-----------------------------|--------2-2-|

|-----------------------------|-----------------------------|---2-2--3-3-|

|-----------------------------|-----------------------------|---2-2--2-2-|

|-----------------------------|-----------------------------|---2-2--0-0-|

|-3-2-3-2-3-2-3-2-3-2-3-2-3---|-3-2-3-2-3-2-3-2-3-2-3-2-3-5-|---0-0------|

|---------------------------1-|---------------------------3-|------------|



____________________________________

|1.

A D |

|------------------------|------2-2-|-----------------------------------|

|------------------------|-2-2--3-3-|-----------------------------------|

|------------------------|-2-2--2-2-|-----------------------------------|

|------------------------|-2-2--0-0-|-----------------------------------|

|-5--5-4-5-4--5--5-4-5---|-0-0------|-5-4-5-4-5-4-5-4-5-4-5-4-5---------|

|----------------------3-|----------|---------------------------3-------|



___________________________________

|2. |

| | E

|---------------------------------|---------------------|------------------|

|---------------------------------|-9-9-------10--------|-9-9-------10-----|

|---------------------------------|-9-9--9-------9----9-|-9-9--9------9----9

|---------------------------------|-9-9--9-11----9-11-9-|-9-9--9-11---9-11-9

|-5-4-5-4-5-4-5-4-5-4-5-4-5-4-5-4-|-7-7-----------------|-7-7--------------|

|---------------------------------|---------------------|------------------|







D A

|---------------------|---2----|-----------------------------------------|

|-9-9-------10--------|-9-3-2--|-----------------------------------------|

|-9-9---9------9----9-|-9-2-2--|-----------------------------------------|

|-9-9---9-11---9-11-9-|-9-0-2--|-----------------------------------------|

|-7-7-----------------|-7---0--|-----------------------------------------|

|---------------------|--------|-----------------------------------------|

Oo, It's





A E7 A E7 A E7 A E7 A



E7 A E7 A E7 A

Letra subida por: Anónimo

Discos en los que aparece este acorde: Gold , The Best Of Kiss , 40 Years: 4 Decades Of Decibels

El acorde de Cold Gin [Live] de Kiss es una versión de la canción original realizada por colaboradores/usuarios de Coveralia.

¿Has encontrado algún error en esta página? Envíanos tu corrección del acorde