música
Buscador

Acorde de Come As You Are - Nirvana

Letra de Come As You Are

Tuning (Afinação): D  (DGCEAd) 



INTRO:



e|---------------------------------

B|---------------------------------

G|---------------------------------

D|---------------------------------

A|-------0-0-------2---2-----------

E|0-0-1-2-2-2-2-1-0-0-0-0----------





repeat intro

Come as you are, as you were, as I want you to be



As a friend, as a friend, as an old enemy



Take your time, hurry up, The choice is yours, don't be late



Take a rest, as a friend, as an old memoria

F#m A F#m A F#m A

memoria, memoria, memoria



repeat intro again



Come dowsed in mud, soaked in bleach, as I want you to be

As a trend, as a friend, as an old memoria

memoria, memoria, memoria

https://www.coveralia.com/acordes/come-as-you-are-nirvana.php



B5 D B5 D

And I swear that I don't have a gun

B5 D

No I don't have a gun

No I don't have a gun

ocultar esta pestaña

SOLO:

e:------------II

B:------------II

G:---5-7------II

D:-7-----7----II

A:------------II

E:------------II x 3



e:------------II

B:------------II

G:-5-7-7^8-7--II

D:----------7-II

A:------------II

E:------------II



memoria, memoria, memoria, memoria



And I swear that I don't have a gun

No I don't have a gun (5x)

Letra subida por: Anónimo

El acorde de Come As You Are de Nirvana es una versión de la canción original realizada por colaboradores/usuarios de Coveralia.

¿Has encontrado algún error en esta página? Envíanos tu corrección del acorde