música
Buscador

Acorde de Conspirador - Zoe

Letra de Conspirador

Acompañamiento o bajeo en D



-RIFF 1

E ---------------------------------------

B ---------------------------------------

G ---------10/9-----------------10/9----- x3

D ---10/12------12--------10/12------12--

A -------------------10/12---------------

E ---------------------------------------



-RIFF 2

E ------------------------------------------

B ------------------------------------------

G -------------10----10---10-12-13-12-10---- x1

D ------10/12----12----12----------------12-

A -10/12------------------------------------

E ------------------------------------------







-VERSO



D

Estuve un rato entretenido

D

Estimulando la verdad

D F

Pero despues de dos escalas

G D

La mentira reaccionó



D

La hora mas oscura de la noche

D

es antes de que salga el sol

D F

Manejas la teledistancia

G

como un mago predador





-Puente

E ------------------------------------------

B ------------------------------------------

G -10-9------9---9/10-9---9/10-9------------

D ------12----12-------12-------12-10-12----

A ------------------------------------------

E ------------------------------------------



----------CORO-------

-FIG1

E -----------------------------

B -----------------------------

G -----------------------------

D -----------------------------

A -3----2--0-----------0-------

E --------------3--------------

https://www.coveralia.com/acordes/conspirador-zoe.php



Hey man soy el conspirador



-FIG2

E ------------------------------

B ------------------------------

G ------------------------------

D -5-5/7-5----------------------

A ---------7-5--3---------------

E ------------------------------

Soy el Karma...





G5

...del angel vengador





-FIG1

-FIG2



------- Fin de CORO -----





-RIFF 1

-RIFF 2



-VERSO



-CORO





D (Por un rato)







-RIFF 3

E --------------------------------------

B --------------------------------------

G -11--11/10-11/10----10--10------------ x3

D -----------------12---12--------10/12-

B ---------------------------10/12------

E --------------------------------------



-RIFF 4

E -------------------------------------------------------

B -------------------------------------------------------

G -11--11/10-11/10------------10---10--10-12-13-12-10----

D ----------------------10/12---12---12---------------12-

B -----------------10/12---------------------------------

E -------------------------------------------------------







D hasta fade out





Letra subida por: Anónimo

Discos en los que aparece este acorde: Zoe , Grandes Hits , Zoe Hits 01-06

El acorde de Conspirador de Zoe es una versión de la canción original realizada por colaboradores/usuarios de Coveralia.

¿Has encontrado algún error en esta página? Envíanos tu corrección del acorde