música
Buscador

Acorde de Daffodil Lament (Live) - The Cranberries

Letra de Daffodil Lament (Live)



Part 1 Part 2 Parts 3,4,5

----------- ----------- -----------

Em 02200x C/G 33201x G 320033

G 32000x G 32000x D/F# 200232

D/F# 2000xx D xx023x Em7 022030

Em 02200x C/G 332010

D/F# 2000xx





Capo: 3rd fret





[Intro]



Em Em G D/F#

e|-----------------------------------------------------------|

B|-----------------------------------------------------------|

G|--------0-------------0-----------0-----------0------------|

D|------2---2---------2---2-------0---0-------0---0----------| x4

A|----2-------0h2---2-------2---2-------2---0-------0--------|

E|--0-------------0-----------3-----------2------------------|



h = hammer on





[Part 1]

Em G D/F#

Holding on, that's what I do since I met you

Em G D/F#

And it won't be long, would you notice if I left you

Em G D/F#

And it's fine for some 'cause you're not the one, you're not the one

Em G D/F#

There, there, there

Em G D/F#

The-er-er-ere, there, there

Em G D/F#

Em G D/F#





[Part 2]

C/G G

All night long, laid on my

C/G G D

Pillow, these things are wrong, I can't sleep, here!

Em G D/F#

Em G D/F#

Em Em G D/F#

So lonely, so lonely, so lonely

Em G D/F#

Em G D/F#





[Part 3]

G D/F# Em7 C/G

G D/F# Em7 C/G

G D/F# Em7 C/G

I have decided to leave you forever

G D/F# Em7 C/G

I have decided to start things from here

G D/F# Em7 C/G

Thunder and lightning won't change what I'm feeling

G D/F# Em7 C/G

And the daffodils look lovely today

G D/F# Em7 C/G

https://www.coveralia.com/acordes/daffodil-lament--live--the-cranberries.php

And the daffodils look lovely today

G D/F# Em7 C/G

Look lovely to-

G D/F# Em7 C/G

day





[Part 4]

Em D/F# C/G D/F#

Oooh in your eyes I can see the disguise

Em D/F# C/G D/F#

Oooh in your eyes I can see the dismay

Em D/F# C/G D/F#

Has anyone seen lightning?

Em D/F# C/G D/F#

Has anyone looked lovely?





[Part 5]

G D/F# Em7 C/G

And the daffodils look lovely today

G D/F# Em7 C/G

And the daffodils look lovely today

G D/F# Em7 C/G

Look lovely to-

G D/F# Em7 C/G

day Look lovely

G D/F# Em7 C/G

Look lovely, look lovely, look lovely, look lovely

G D/F# Em7 C/G

Look lovely, look lovely, look lovely, look lovely

G D/F# Em7 C/G

Look lovely, look lovely, look lovely, look lovely

G D/F# Em7 C/G

Look lovely, look lovely, look lovely, look lovely

G D/F# Em7 C/G

Na-na, na-na na-na

G D/F# Em7 C/G

Na-na, na-na na-na

G D/F# Em7 C/G

Na-na, na-na na-na

G D/F# Em7 C/G G

Na-na, na-na na-na na





--- Lead Guitar parts ---



Riff during Intro:



e|----------------------------------------|

B|---0h8---0h5---0h3---0h1---3p1---0------|

G|----------------------------------------|

D|----------------------------------------|

A|----------------------------------------|

E|----------------------------------------|



Riff during Parts 3 and 5



e|-----3--------2--------0----------------|

B|--3-----3--3-----3--3-----3--0h1--0--1--|

G|----------------------------------------|

D|----------------------------------------|

A|----------------------------------------|

E|----------------------------------------|

Letra subida por: Anónimo

Discos en los que aparece este acorde: Stars: The Best Of 1992-2002 (Uk Limited Edition)

El acorde de Daffodil Lament (Live) de The Cranberries es una versión de la canción original realizada por colaboradores/usuarios de Coveralia.

¿Has encontrado algún error en esta página? Envíanos tu corrección del acorde