música
Buscador

Acorde de Detroit Rock City - Kiss

Letra de Detroit Rock City

Afinaçao: Eb Ab Db Gb Bb eb 



Intro:





eb|-------------------------------------------------------------|

Bb|-------------------------------------------------------------|

Gb|-------------------------------------------------------------|

Db|-------------------------------------------------------------|

Ab|--4p2--4p2--4p2--4p2--4p2--4p2--4p2--4p2--4p2--4p2--4p2--4p2-|

Eb|-------------------------------------------------------------|



eb|----------------------------------|

Bb|----------------------------------|

Gb|--------------------2-------------|

Db|-6--6--6-6-6-6------2------4---6--|

Ab|-4--4--4-4-4-4------0------2---4--|

Eb|----------------0-----------------|









Verse 1



C#5

I feel uptight on a Saturday night

E5 B5 F#5

Nine O'clock the radio's the only light

C#5

I hear my song and it pulls me through

E5 B5 F#5

Comes on strong tells me what I go to do I got to





A5

Get up ! Everybody's gonna move their feet

B5

Get down ! Everybody's gonna leave their seat.



Riff 2

You gotta lose your mind in Detroit Rock City

A5

Get Up! Everybody's gonna move their feet

B5

Get down ! Everybody's gonna leave their seat



Verse 2



C#5

Gettin' late I just can't wait

E5 B5 F#5

Ten o'clock and I know I gotta hit the road

C#5

First I drink then I smoke

E5 B5 F#5

Start up the car and I try to make the midnight show



A5 B5

Get up ! Everybody's gonna move their feet Get down !



Riff 3





C#5

Movin' fast doin' ninety five

E5 B5 F#5

Hit top speed but I'm still movin' much too slow

C#5

I feel so good I'm so alive

E5 B5 F#5

Hear my song playin' on the radio it goes





A5 B5 C#5

Get up ! Everybody's gonna move their feet Get down !



Solo



eb|--------------------------------------------------------------|

Bb|-------4----5-4h5p4---5-4h5p4----------4h5p4------------------|

Gb|-----4---6~---------6---------6--4~--4------4---------6p4h6---|

Db|-3/6------------------------------------------7-6-6/7~------7-|

Ab|--------------------------------------------------------------|

Eb|--------------------------------------------------------------|



eb|--------------------------------------------------------------|

Bb|---------------------4----5-4h5p4--5-4h5p4-------4h5p4--------|

Gb|-6p4h6p4------------4------------6--------6-4~-4------7-6-6/7-|

Db|---------7-6~--3/6-----6~-------------------------------------|

Ab|--------------------------------------------------------------|

Eb|--------------------------------------------------------------|

https://www.coveralia.com/acordes/detroit-rock-city-kiss.php



eb|--------------------------------------------------------------|

Bb|---------------------------9-7h9p7---9-7h9p7--------7h9p7-----|

Gb|---4-5~-6-6-6-6-6-6-6---9~---------9---------9-8~-8-------9-8-|

Db|-6--------------------7---------------------------------------|

Ab|--------------------------------------------------------------|

Eb|--------------------------------------------------------------|



eb|---------------------------9-7h9p7----------------------------|

Bb|-7------9-7h9p7----------9---------9-7----9-7h9p7---9-7h9p7---|

Gb|---9~-9---------9-8-8/9~---------------9~---------9---------9-|

Db|--------------------------------------------------------------|

Ab|--------------------------------------------------------------|

Eb|--------------------------------------------------------------|



eb|----------------------|

Bb|-------7h9p7------7---|

Gb|-8~----------9-8---9~-|

Db|----------------------|

Ab|----------------------|

Eb|----------------------|







Verse 4:



C#5

Twelve o'clock I gotta rock

E5 B5 F#5

There's a truck a head lights starin' at my eyes

C#5

Whao, my god no time to turn

E5 B5 F#5

I got to laugh 'cause I know I'm gonna die Why ?

A5 B5 C#5

Get up! Everybody's gonna move their feet. ( Get Down!)

A5 B5 C#5

Get up ! Everybody's gonna leave their seat Get Down !





Riff 2:



eb|-------------------------------------|

Bb|-------------------------------------|

Gb|-------------------------------------|

Db|-----------------------2---------2---|

Ab|-4---4p2---2--4--4-2-4---4---------4-|

Eb|---------4------------------2h4------|



eb|---------------------------------------|

Bb|---------------------------------------|

Gb|---------------------------------------|

Db|-----------------------2---------2-----|

Ab|-4---4p2---2--4--4p2-4---4----------4~-|

Eb|---------4-------------------2-4-------|





Riff 3



eb|-------------------------------------|

Bb|-------------------------------------|

Gb|-------------------------------------|

Db|-----------------------2---------2---|

Ab|-4---4p2---2--4--4-2-4---4---------4-|

Eb|---------4------------------2h4------|



eb|--------------------------------------------------------------|

Bb|--------------------------------------------------------------|

Gb|--------------------------------------------------------------|

Db|-----------------------2--------------------------4-------4---|

Ab|-4---4p2---2--4--4-2-4---4--4/6-6p4---4-6--6p4-6----6-------6-|

Eb|---------4--------------------------6-----------------4h6-----|



eb|--------------------|

Bb|--------------------|

Gb|--------------------|

Db|-------4------2-----|

Ab|-6p4-6---6------4---|

Eb|------------2-----0-|





Melodia:



eb|-----------------------------|

Bb|-4b6r4p2-4b6r4b6r4p2---------|

Gb|---------------------4-4/6~--|

Db|-----------------------------|

Ab|-----------------------------|

Eb|-----------------------------|

Letra subida por: Anónimo

¿Has encontrado algún error en esta página? Envíanos tu corrección del acorde