música
Buscador

Acorde de Don't Let Go The Coat - The Who

Letra de Don't Let Go The Coat

{intro; basic pattern} 



||:G Gmaj7 | C D/F# :||

||-3--2-----|----------------||

||-3---3----|--1--------3----||

||.0----0---|---0------2----.||

||.---------|------------0--.||

||---------0|-3--------------||

||-3--------|------0-2-----0-||





G Gmaj7 |C D |G

I can't be held responsible for blown behavior



Gmaj7 |C D |G

I lost all contact with my only savior



No one locked me out because I failed to phone up

I can't bear to live forever like a loner



{Chorus}

|G Gmaj7 |C D |G Gmaj7...

Don't let go the coat

Don't let go the coat

Don't let go the coat

Don't let go the coat



It's easy to be sad when you lack a partner

But how would I react to a broken heart now

It ain't really true rock and roll unless I'm

Hanging onto you and when I hold it next time



I won't let go the coat

Don't let go the coat

Don't let go the coat

Don't let go the coat



| G Gmaj7 |C D |G Gmaj7 |

|----------------|------|------------------------|

|3h5-3-0-3h5-3-5-|7-7---|13--12-----13--12-------|

|4h5-4-0-4h5-4-5-|7-7---|14--12--12-14--12-12----|

|----------------|------|--------12--------12----|

|----------------|------|------------------------|

|----------------|------|------------------------|



|C D |G Gmaj7 |C D |

|-------------|7----------------|---------|

https://www.coveralia.com/acordes/don-t-let-go-the-coat-the-who.php

|10-----------|7h8-0---5-3-0-5--|7--------|

|11--11-11----|--------5-4-0-5--|7--------|

|-------------|----0------------|0--------|

|-------------|-----------------|---------|

|-------------|-----------------|---------|



|G Gmaj7|C D Em...

|-----------|----------------------|

|8-7-8-10---|5-5-7-7-8---8---10-10-|

|9-7-9-11---|5-5-7-7-9---9---11-11-|

|-----------|----------------------|

|-----------|----------------------|

|-----------|----------------------|



{bridge}

|Em |D |C | (D) |

I try to explain but you never understand it

I need your body but I can't just demand it



|Bm7 |Gmaj7/B C |D Dsus4 D Dsus2|

I won't let go like a stray at heel

(Never let him out of your sight)



|Bm7 |Gmaj7/B C|D Dsus4 D|

Every lonely wife knows the way I feel

(Don't let go tonight)



Don't let go the coat

Never let go the coat...



Your friends all pass for life is just a market

But you have to finish everything you started

So I live my life tearing down the runway

Sure to get the hang of hanging in there someday



Don't let go the coat...



Won't get no more chances

Ooh, forget the war dances

Don't let go...

Never let go the coat

Don't let go

Go blind and hang on

Don't try the slang, son

Never let go the coat, no, no

Don't let go...

Letra subida por: Anónimo

El acorde de Don't Let Go The Coat de The Who es una versión de la canción original realizada por colaboradores/usuarios de Coveralia.

¿Has encontrado algún error en esta página? Envíanos tu corrección del acorde