música
Buscador

Acorde de Don't Sleep In The Subway Darling - Petula Clark

Letra de Don't Sleep In The Subway Darling

G 

/ / / / / / / /



Verse 1:



G D/F# Em Bm

You wander around on your own little cloud

C G D7sus4 D7

When you don't see the why or the wherefore

G D/F# Em Bm

Ooh, you walk out on me when we both disagree

C G D7sus4 D7

'Cause to reason is not what you care for



B/F# G#7/F# C#m/F# F# G#m

I've heard it all a million times before

D/A B7/A Em/A A Dsus4 D

Take off your coat, my love, and close the door

Eb Bb/D

Don't sleep in the subway, darling

Cm Bb

Don't stand in the pouring rain

Eb Bb/D

Don't sleep in the subway, darling

Cm

The night is long

Bb/D

Forget your foolish pride

Eb6 Em7/5-

Nothing's wrong

Cm7/F F (Bb)

Now you're beside me again



after 1st Chorus:



https://www.coveralia.com/acordes/don-t-sleep-in-the-subway-darling-petula-clark.php

Bb

v v v v v v v v

-----------------|-----------------

-----6-------8---|-9-----4---------

-----7-------9---|10-----5---------

-----------------|-----------------

-----------------|-----------------

-----------------|-----------------



Gb

v v v v v v v v

-----------------|-----------------

-----3-------5---|-6-----1---------

-----4-------6---|-9-----2---------

-----------------|-----------------

-----------------|-----------------

-----------------|-----------------



between Chorus repeats at end:



Bb Ab/Bb

/ / / / / / / /



Verse 2:



You try to be smart, then you take it to heart

'Cause it hurts when your ego is deflated

You don't realize that it's all compromise

And the problems are so overrated



Goodbye means nothing if it's just for show

So why pretend you've somewhere else to go



{repeat Chorus to fade}

Letra subida por: Anónimo

Discos en los que aparece este acorde: Give It A Try

El acorde de Don't Sleep In The Subway Darling de Petula Clark es una versión de la canción original realizada por colaboradores/usuarios de Coveralia.

¿Has encontrado algún error en esta página? Envíanos tu corrección del acorde