música
Buscador

Acorde de El Final De Cada Día - Diego Martin

Letra de El Final De Cada Día



Intro/Verso:

e -------------------------------------------*

B -------------------------------------------*

G ------3-----3--------------3------2--------*

D ----3-----3-----3--------3------3-----3----*

A --1-----6--------------3-------------------*

E ------------------------------1------------*



Por si el tiempo que ha pasado se llevó también tus trastos

Si también te da la risa recordando aquellas tonterías

Si al final de cada día ves como yo que contigo era mejor

Solamente por si acaso deja que te diga...





Gm Cm F

Que tengo, salpicadito el aire de te quieros que te manda

Bb Gm

Esta boca cuando me oye suspirar

Cm F

Tengo a punto de escaparse de mi pecho el corazón

D7

Pa buscarte porque ya no puede mas







Eb F Bb

Tengo noches que me avalan pa enseñarte de tristeza y soledad

Eb F Gm

Unas manos que suspiran por volverte a acariciar

Eb F Bb

Una mirada perdida pa que veas que es verdad

Fm G

El final de cada día no me deja vivir ya

Eb F Bb

Tengo noches que me avalan pa enseñarte de tristeza y soledad

Eb F Gm

Unas manos que suspiran por volverte a acariciar

Eb F Bb

Una mirada perdida pa que veas que es verdad

Fm G

El final de cada día no me deja vivir ya no...





e -------------------------------------------*

B -------------------------------------------*

G ------3-----3--------------3------2--------* x2

D ----3-----3-----3--------3------3-----3----*

A --1-----6--------------3-------------------*

E ------------------------------1------------*







Verso 2: (palm muted)

e --------------------------------------------*

B --------------------------------------------*

G ------3-----3---------------3------2--------*

D ----3-----3-----3---------3------3-----3----*

A --1-----6-----6---------3------------3------*

E -------------------------------1------------*

https://www.coveralia.com/acordes/el-final-de-cada-dia-diego-martin.php



Que me dejes que te diga que lo mio es pura hipocresía

Que tu abrazo es mi camino que sin el estoy perdido

Si lo ves, ves como yo al final que contigo era mejor

Solamente por si acaso, deja que te diga





Gm Cm F

Que tengo, salpicadito el aire de te quieros que te manda

Bb Gm

Esta boca cuando me oye suspirar

Cm F

Tengo a punto de escaparse de mi pecho el corazón

D7

Pa buscarte porque ya no puede mas







Eb F Bb

Tengo noches que me avalan pa enseñarte de tristeza y soledad

Eb F Gm

Unas manos que suspiran por volverte a acariciar

Eb F Bb

Una mirada perdida pa que veas que es verdad

Fm G

El final de cada día no me deja vivir ya

Eb F Bb

Tengo noches que me avalan pa enseñarte de tristeza y soledad

Eb F Gm

Unas manos que suspiran por volverte a acariciar

Eb F Bb

Una mirada perdida pa que veas que es verdad

Fm G

El final de cada día no me deja vivir ya



Eb F Bb Eb F Gm Eb F Bb



Fm G

El final de cada día no me deja vivir ya





Eb F Bb

Tengo noches que me avalan pa enseñarte de tristeza y soledad

Eb F Gm

Unas manos que suspiran por volverte a acariciar

Eb F Bb

Una mirada perdida pa que veas que es verdad

Fm G

El final de cada día no me deja vivir ya



Eb F Bb

Tengo noches que me avalan...

Eb F Gm

Unas manos que suspiran...

Eb F Bb

Una mirada perdida...

Fm G

El final de cada día no me deja vivir ya

Letra subida por: Anónimo

Discos en los que aparece este acorde: Vivir No Es Solo Respirar , Vivir No Es Solo Respirar (Edicion Especial) ,

El acorde de El Final De Cada Día de Diego Martin es una versión de la canción original realizada por colaboradores/usuarios de Coveralia.

¿Has encontrado algún error en esta página? Envíanos tu corrección del acorde