música
Buscador

Acorde de Entre Flores - Efecto Mariposa

Letra de Entre Flores

Nota: *Sugiero el acorde abierto para el F#m - C#m - B - E





E Emaj7

Te llevas mi sonrisa

E Emaj7 E/A

me dejas todo lo demás

F#m A9 E Emaj7

entre tu y yo tan sólo flores.



E Emaj7

Que extraño es el destino

E Emaj7 E/A

nos une y vuelve a separar

F#m A9 C#m

y entre tu y yo tan sólo flores.



A9 B

Y mientras te perdías

C#m B

al borde de la vida, amor

A9 E/G#

secaste mi voz

B

tapaste el sol

B

y es que te quise tanto.



[Coro]

E G#

Tú me dejas sin nada

C#m

todo se acaba hoy

B

cerraste los ojos no te dije adiós.

A9 B

Y es que tú, sólo tú.





E Emaj7

Estoy aquí contigo

E Emaj7 A/E

tan cerca y lejos a la vez

F#m A9 C#m

y se nos vuelve a hacer de noche



A9 B

Después de un nuevo dia

C#m B

me pesa aún más la vida, amor

A E/G#

secaste mi voz

B B

y sólo sé que me quisiste tanto



[Coro]

E G#

Tú me dejas sin nada

C#m

todo se acaba hoy

https://www.coveralia.com/acordes/entre-flores-efecto-mariposa.php

B

cerraste los ojos no te dije adiós.

E G#

Tú, tú lo eras todo

C#m B

te fuiste antes que yo

F#7

bailando a mi alrededor

A9 B F#m

Por que tú, sólo tú (en mi corazon )



[Intermedio]

F#m A E B - F#m A C G A





[coro]





E Emaj7

te llevas mi sonrisa

E Emaj7 A/E

me dejas todo lo demás

F#m A9 E

estoy aquí entre malvas flores



1-------0-------

2-------0-------

3---2----------- F#m

4-------4-------

5-------4-------

6-------0-------



1--------0------

2------5--------

3--------6------ C#m

4--------6------

5----4----------

6--------0------



1----0----------

2----0----------

3--1------------ E/A

4----2----------

5----0----------

6----0----------



1-------0-------

2-------0-------

3-------4------- B

4-------4-------

5---2-----------

6---------------



1--------0-------

2--------0-(9)---

3-----(8)9------- E (Maj7)

4--------9-------

5----7-----------

6----------------

Letra subida por: Anónimo

Discos en los que aparece este acorde: Complejidad , Vivo En Vivo

El acorde de Entre Flores de Efecto Mariposa es una versión de la canción original realizada por colaboradores/usuarios de Coveralia.

¿Has encontrado algún error en esta página? Envíanos tu corrección del acorde