música
Buscador

Acorde de Envidia Cochina - La Polla Records

Letra de Envidia Cochina





Sol Si Do La => 4 veces





Aquí, cada columna es la misma nota:



SOL SI DO LA

Soy un hombre

insa-tis-fe-cho

y laen-vi-dia

me co-rro-e



Aquí, lo mismo que antes:



La Si Do La Si Do

Si la ley es para todos

y todos somos igual

y si todos somos libres

pa elegir ocupación



Sol

Quiero vivir sin currar,

y que lo pague el país

y quiero veranear,

en el palacio



Re Sol

real, seguir así no es para mí



Sol

Condenar la corrupción....



Re Re Re Re Do

....gorrón, ir vestido de ge-ne-ral



Do Re Mi Sol Sol La Sol Re

ver des fi lar la ju-ventud



https://www.coveralia.com/acordes/envidia-cochina-la-polla-records.php

Re Re Re Re Do Do Re Mi Sol

Y hablar, a la nación, por na-vi-dad



Sol La Sol La

vuelve al hogar



A la vez, una guitarra toca esto:



E |--------------------------------------------|

B |--------------------5-----------------------|

G |-7--7--7--5---5--7-------------------7------|

D |-----------------------5---5---7--5---------|

A |--------------------------------------------|

E |--------------------------------------------|

...de general ver desfilar la juventud, y hablar...



E |--------------------------------------------|

B |--------------------5-----------------------|

G |-7--7--7--5---5--7--------------------------|

D |-----------------------5---5---7----5--7----|

A |--------------------------------------------|

E |--------------------------------------------|

...a la nación por navidad vuelveal hogar





SOL SI DO LA

Quiero be-sar

a los niños

despreciando al

te-rroris-mo



LA SI DO (8 veces)



Y ahora igual que antes. Los acordes del sólo son: Sol Si La Do, hasta

que toca lo mismo que la estrofa de antes.



A partir de ahora está todo repetido, así que yo creo que se puede tocar.

Letra subida por: Anónimo

El acorde de Envidia Cochina de La Polla Records es una versión de la canción original realizada por colaboradores/usuarios de Coveralia.

¿Has encontrado algún error en esta página? Envíanos tu corrección del acorde