música
Buscador

Acorde de Every Man Has A Woman Who Loves Him - John Lennon

Letra de Every Man Has A Woman Who Loves Him

SOLO



| Em | % | Am | % |



e|----7-6-7-------|5---------------|----------------|----------------|

B|----------8-5-8-|--8-8-7-7-5-5-7-|----7-8-4-5-----|--------4-5-7-8-|

G|----------------|----------------|----------------|4-5-------------|

D|----------------|----------------|----------------|----------------|

A|----------------|----------------|----------------|----------------|

E|SAX/MARIMBA-----|----------------|----------------|----------------|



e|----------------|----------------|----------------|----------------|

B|----------------|----------------|----------------|----------------|

G|----------------|----------------|----------------|----------------|

D|----------------|----------------|6-7-------------|----4-5---------|

A|----------------|----------------|------------6-7-|------------1-2-|

E|GUITAR----------|----------------|----------------|----------------|



---------------------------------------------------------------------------



INTRO

| Em | % | Am |% |



Em Am

Every man has a woman who loves him

Em Am Em Am

In rain or shine or life or death

Em Am

If he finds her in this life time

Em Am Em Am

He will know when he presses his ear to her breast



Em Am

Why do I roam when I know you're the one

Em Am

https://www.coveralia.com/acordes/every-man-has-a-woman-who-loves-him-john-lennon.php

Why do I laugh when I feel like crying



SOLO

| Em | % | Am | % | Em | % | Am |% |



Em Am

Every woman has a man who loves her

Em Am Em Am

Rise or fall of her life and death

Em Am

If she finds him in this life time

Em Am Em Am

She will know when she looks into his eyes



Em Am

Why do I roam when I know you're the one

Em Am Em Am

Why do I run when I feel like holding you



Em Am

Every man has a woman who loves him

Em Am

If he finds her in this life time

Em Am

He will know ...



SOLO

| Em | % | Am | % | Em | % | Am |% |



(repeat and fade)







Letra subida por: Anónimo

Discos en los que aparece este acorde: Lennon

El acorde de Every Man Has A Woman Who Loves Him de John Lennon es una versión de la canción original realizada por colaboradores/usuarios de Coveralia.

¿Has encontrado algún error en esta página? Envíanos tu corrección del acorde