música
Buscador

Acorde de Everything I Said - The Cranberries

Letra de Everything I Said

(riff)



E|---------3-------|---3-----|---------3-------|---3-----|

B|-------3---3-----|-4---4---|-------3---3-----|-3---3---|

G|-----3-------3---|-------3-|-----3-------3---|-------3-|

D|---5-----------5-|---------|---5-----------5-|---------|

A|-6---------------|---------|-5---------------|---------|

E|-----------------|---------|-----------------|---------|



E|---------3-------|---3-----|---------3-------|---3-----|

B|-------4---4-----|-4---4---|-------3---3-----|-3---3---|

G|-----5-------5---|-------5-|-----3-------3---|-------3-|

D|---5-----------5-|---------|---3-----------3-|---------|

A|-3---------------|---------|-----------------|---------|

E|-----------------|---------|-6---------------|---------|



(versos) Ebmaj7 Gm Ab Bb6



(coro) Ab Cm Dm Bb



(passagem 1)

E|-10h11-10--------|-10h11-10-------|---|----------------|

B|----------11-8-8-|----------11-8--|-8-|-8-9-8-6--------|

G|-----------------|----------------|---|---------7------|

D|-----------------|----------------|---|----------------|

A|-----------------|----------------|---|----------------|

E|-----------------|----------------|---|----------------|



E|---|

B|---|

G|-7-|

D|---|

A|---|

E|---|

https://www.coveralia.com/acordes/everything-i-said-the-cranberries.php



(passagem 2)

E|-10h11-10------------|

B|-----------11-8-8h11-|

G|---------------------|

D|---------------------|

A|---------------------|

E|---------------------|



It makes me lonely

It makes me very lonely

When I see you here, waitin' on

It makes me tired

It makes me very tired

And inside of me, limps on

But you have your heart

Don't believe it

And you will find it, waitin' on

Everything I said

Well I meant it

And inside my head, holdin' on



Cause if I die tonight

Would you hold my head, no

Would you understand

And if I lived in spite

Would you still be here, no

Would you disappear



Surely must be you

But I don't make you lonely

I'll get over you

But I don't make you lonely

Discos en los que aparece este acorde: No Need To Argue , Treasure Box , Gold

El acorde de Everything I Said de The Cranberries es una versión de la canción original realizada por colaboradores/usuarios de Coveralia.

¿Has encontrado algún error en esta página? Envíanos tu corrección del acorde