música
Buscador

Acorde de Falling In Love With You - Gary Moore

Letra de Falling In Love With You

b=bend

v=vibrato

br=bend and release

h=hammer on

/=slide



Intro



Gmaj7 F#min7 Bsus b

e----15br14-15-14v-------------------------|

b---------------------15-------------------|

g--14--------------------14h1614v----16b16-|

d---------------------------------16-------|

a------------------------------------------|

e------------------------------------------|





Verse

Gmaj7 F#min7 Bm

When I'm close to you I feel my heartbeat,



Gmaj7 F#min7 Bm

telling me that your the one for me-ee.



Gmaj7 F#min7 Bm

Darling I dont u-nderstand the reasons,



e----------------------------------------------------------|

b----1------1-----3-2--------------------------------------|

g-----0------0----2-2--------------------------------------|

d---2------0------2-2--------------------------------------|

a--3------2------------------------------------------------|

e----------------------------------------------------------|

I just know that this was meant to be.



Gmaj7 F#min7 Bm

And when i look into your eyes I see-ee



Gmaj7 F#min7 Bm

everything that i've been search-in' for



Gmaj7 F#min7 Bm

Darlin' I don't u-nderstand the reasons





e-------------------|

b---1------1---3--2-|

g----0------0--2--2-|

d--2------2----2--2-|

a-3------3----------|

e-------------------|



I just know it's growin' more and more





Chorus



https://www.coveralia.com/acordes/falling-in-love-with-you-gary-moore.php

e--2--2--2----------2--2------------------------|

b--4--2--2-----8v---2--2------------------------|

g--0--2--4--6/7-----2--4------------------------|x2

d--0--2--4----------2--4------------------------|

a--x--4--2--------5-4--2------------------------|

e--3--2-----------3-2---------------------------|



Then...



e----------------------------------------|

b---1-----1---3--2-----------------------|

g----0-----0--2--2-----------------------|

d--2-----0----2--2-----------------------|

a-3-----2--------------------------------|

e----------------------------------------|



Repeat verse and chorus



Bridge



e---------------|

b--5-32---------|

g------4-2v-----|

d---------------|

a---------------|

e---------------|



Gmaj7

F#min7 b-2---3---3v---2/5-2v

they say you're not the one for me



Gmaj7

Fmin7 b-2---3--3v

Then I am just a dre-eeamer



C Bm

I tried so hard to make you see,





e--0----------------------------------------|

b--0----------------------------------------|

g--0------- e------------------------------|

d--0------- b---1-----1-----------3-----2--|

a--2------- g----0-----0----------2-----2--|

e---------- d--2-----0------------2-----2--|

a-3-----2----------------------|

Em e------------------------------|

That someone like you could make my dreams, come true



Solo



Chorus



Repeat intro twice





Letra subida por: Anónimo

Discos en los que aparece este acorde: Corridors Of Power , Ballads & Blues 1982-1994 , Corridors Of Power (2002)

El acorde de Falling In Love With You de Gary Moore es una versión de la canción original realizada por colaboradores/usuarios de Coveralia.

¿Has encontrado algún error en esta página? Envíanos tu corrección del acorde