música
Buscador

Acorde de Forever - Kiss

Letra de Forever

Tune to D# 

Afinar em D#



D C9 G D9

I got to tell you what I'm feeling inside.

Em D C9

I could lie to myself, but its true.

D C9 G D9

There's no denyin' when I look in your eyes

Em D9 C9

Girl, I'm out of my head over you.

Am7 G/B C D

And I lived so long be lieving all love is blind

Am7 G/B C D

But everything about you is telling me this time

G D Em C Am D

Its fore_ver This time I know and there's no doubt in my mind.

G D

Fore_ver.

G Am7 >

Until my life is through, > Junto com o solo de baixo

G/B C D C >

Girl I'll be loving you fore_ver >



-|-10-----10-10------10-----10-8-7------------|

-|----7-8-------7-8-----7-8--------10-8-7-----|

-|----------------------------------------9---|

-|--------------------------------------------|

-|--------------------------------------------|

-|--------------------------------------------|





D C9 G D9

I hear the echo of a promise I made

Em D C9

When you're strong you can stand on your own.

D C9 G D9

But those words grow distant as I look at your face

Em D C9

No, I don't wanna go it alone

Am7 G/B C D

An' I never thought I'd lay my heart on the line.

Am7 G/B C D

But everything about you is telling me this time

G D Em C Am D

Its fore_ver This time I know and there's no doubt in my mind.

G D

Fore_ver.

G Am7 >

Until my life is through, > Junto com o solo de baixo

G/B C D C >

Girl I'll be loving you fore_ver >



-|-10-----10-10------10-----10-8-7------------|

-|----7-8-------7-8-----7-8--------10-8-7-----|

-|----------------------------------------9---|

-|--------------------------------------------|

-|--------------------------------------------|

-|--------------------------------------------|



https://www.coveralia.com/acordes/forever-kiss.php



Base do Solo: D9 C9 G D Em D C9



Solo:

Acho que dá pra enganar bem até ;)



-|-10-10-10--10-10--10-8-7------------------------------------|

-|-------------------------7h8h10-8-7---------7-8---7-8-7-----|

-|------------------------------------9-7---9-----9-----------|

-|------------------------------------------------------------|

-|------------------------------------------------------------|

-|------------------------------------------------------------|



-|-------------------------------|----------------------------|

-|-----------------------5*--7*--|-7-8-10--8--7~8~7-----------|

-|---0-------------------5*--7*--|------------------9-7-------|

-|-4----2-4--0-2--2-0----5*--7*--|----------------------------|

-|--------------------3----------|----------------------------|

-|-------------------------------|----------------------------|



-|--------7---------------|------------------------12--|

-|-7-8-10-----10-8-7------|---------------------12-----|

-|-----------------9--7-9-|--2-0-------------12--------|

-|------------------------|--------2~4~2-0-------------|

-|------------------------|----------------------------|

-|------------------------|----------------------------|



-|-14--15--14--12--14---15--14--12---------------------|

-|-----------------------------------------------------|

-|-----------------------------------------------------|

-|-----------------------------------------------------|

-|-----------------------------------------------------|

-|-----------------------------------------------------|



-|----15---------14------12-----10---------------------|

-|-----------------------------------------------------|

-|-12----12--11-----11-9----9-7----7-5-----------------|

-|-----------------------------------------------------|

-|-----------------------------------------------------|

-|-----------------------------------------------------|



* - harmônico



Am7 G/B C9 D9

I see my future when I look in your eyes

Am7 G/B C9 D9

It took your love to make my heart come alive

Am7 G/B C D

And I lived so long be lieving all love is blind

Am7 G/B C D

But everything about you is tellin' me this time

G D Em C Am D

Its fore_ver This time I know and there's no doubt in my mind.

G D G Am7

Fore_ver. Until my life is through,

G/B C D C

Girl I'll be loving you fore_ver





Letra subida por: Anónimo

¿Has encontrado algún error en esta página? Envíanos tu corrección del acorde