música
Buscador

Acorde de I Can't Explain - The Who

Letra de I Can't Explain

intro e riff principal : 

|E D D A E E|



Got a feeling inside

(Can't explain)

It's a certain kind

(Can't explain)

I feel hot and cold

(Can't explain)



|E D D |B E E |

Yeah, down in my soul, yeah

(Can't explain)



|E D D | A E E |

I said...

(Can't explain)



|E D D |A E |

I'm feeling good now, yeah, but...

(Can't explain)



|E D D |A E E |

Dizzy in the head and I'm feeling blue

(Ooh Ooh Ooh Ooh...)



|E D D |A E E |

The things you've said, well, maybe they're true



|E D |A E |

I'm gettin' funny dreams again and again





|E D B | |

I know what it means, but...



refão:



|E |C#m |A (Asus4 A) |B (Bsus4 B) |

Can't explain, I think it's love, try to say it to you when I feel blue,(but I)



|E D D |A E E |

But I can't explain

( Ooh Ooh, Can't explain)



| E D D |A E E |



Yeah, you hear what I'm saying, girl

( Ooh Ooh, Can't explain)



{solo 1}

|E D |A E |E D |A E |

|----4---------|-----------------|--------------|--------------------|

|0---0-------2-|----2-2----------|--3-3-3--2-2--|--------------------|

|2/4---4/2-0-2-|2---2-2----------|2-4-4-4--2-2--|2-------------------|

|----------0-2-|2---2-----0-0/0--|2-------------|2p0--------0---2p0--|

|--------------|0-------2------2-|2-------------|----2-0--2---2----2-|

|--------------|-----------------|--------------|--------------------|



|E D D |A E E |

https://www.coveralia.com/acordes/i-can-t-explain-the-who.php

Dizzy in the head and I'm feeling bad

(Ooh Ooh Ooh Ooh...)



|E D D |A E E |

The things you've said have got me real mad



|E D |A E |

I'm gettin' funny dreams again and again



|E D B | |

I know what it means, but...



|E |C#m |A |B |

Can't explain, I think it's love, try to say it to you when I feel blue,



|E D D |A E E |

But I can't explain

( Ooh, Ooh Can't explain)



|E D D |A E E |

Forgive me one more time now, yeah, yeah, yeah, yeah

( Ooh, Ooh Can't explain)



{solo 2}

E D |A E |E D |A D |

|---0---------|-------------|------------|------------------|

|-------------|-------3-3-3-|3-3-3-3-3-3-|3-----------------|

|----4\2-0----|---0---4-4-4-|4-4-4-4-4-4-|4-2p0-------------|

|0h2------2-0-|2----2-2-2-2-|2-2-2-2-2-2-|2----2-0h2p0------|

|-------------|-------------|------------|------------2-0---|

|-------------|-------------|------------|---------------3^-|



|E D |A E | E D |A E |

|-0---0-0-0-|--0---0----0---0|----3------------------|--------------|

|-5---0-0-0-|--0---0-3/5-3/5-|3/5---0-3-0------------|0-------------|

|-4--/11----|2/4-2/4---------|----------0-2-2/4------|0-2-2---------|

|-----------|----------------|------------------0-2-2|0-2-2-4-4-6-0-|

|-----------|----------------|-----------------------|------2-2-4-0-|

|0----------|----------------|-----------------------|--------------|



|E D D |A E E |

I said I can't explain, yeah

(Ooh, Ooh, can't explain)



|E D D |A E E |

You drive me outta my mind

(Ooh, Ooh, can't explain)



|E D D |A E E |

Hey, I'm the worrying kind, babe

(Ooh, Ooh, can't explain)



|E D D |A |E |

I said I can't explain

(Ooh, Ooh, can't explain)







Letra subida por: Anónimo

¿Has encontrado algún error en esta página? Envíanos tu corrección del acorde