música
Buscador

Acorde de If I Knew - Helloween

Letra de If I Knew

Intro: Em D G Em C D B...

312 311 39 311 312 311...





(Faz essa parte com pestana)

Verse:

Em C

Loneliness seems like an evil dream

B C D Em

But reality is life and life is here

Em C

Once my heart was ruled by emptiness

B C D Em

Harmed because of being too sincere



Pre chorus:

C D G

But now that you've crossed my way

C B

Could it be found it again



Chorus:



Em D G Em

If I knew that I'm your only one

C D B

I could live and make it through time



C D G Em

But if one day you'd just be gone

C D C D Em

I wouldn't know how to ever get by





solo keyboard

Em D G Em C D B

|----------------------------------------------------------------------

|--------------------10-12_-12-10--------------------------------------

|-12-11-9_--9-11_-12-------------12p11-9_-12-11-9_-11-12-11--9----11_--

|--------------------------------------------------------------12------

|----------------------------------------------------------------------

|----------------------------------------------------------------------



B C D G Em

---------------------10-14-15-|-12_-10-12-14_-17-15_-19-17-15p14-12_-

----------------10-12---------|--------------------------------------

-11p9h11p9-11-12--------------|--------------------------------------

------------------------------|--------------------------------------

------------------------------|--------------------------------------

------------------------------|--------------------------------------



C D Em

-10h12-10h12p10--10---------------------------------------|

---------------12--12-10-12-10h12p10--10------------------|

------------------------------------12--12-11-12-11----9_-|

----------------------------------------------------12----|

----------------------------------------------------------|

----------------------------------------------------------|



verse:

Em C

How can I make you feel secure

B C D Em

We're both the same, I'm king and you are queen

Em C

Understand you make me breathe again

B C D Em

Tell me all your thoughts and I will see



Pre Chorus:

C D G

https://www.coveralia.com/acordes/if-i-knew-helloween.php
Take my hand and we'll be there

C B

Together, someday, somewhere



Chorus:

Em D G Em

If I knew that I'm your only one

C D B

I could live and make it through time



C D G Em

But if one day you'd just be gone

C D C D Em

I wouldn't know how to ever get by



solo

Em D G Em C D B

|-------------------------------------------------------------------------

|---------------10b12r10----------------------------------------------12_-

|--9_--11_--12_---------12_-12-9h11--9-------------------------9-11-12----

|-9---9----9-----------------------12-10-12-9-10--9-----9-10-12-----------

|-----------------------------------------------12-10-12------------------

|-------------------------------------------------------------------------





B Em D G Em C D

-------------|-12_-12---------------------------------------15--12_-15-14_-

13b15r13-12_-|-------15_-13b15r13-12_------------12-12h15p12--15-----------

-------------|-----------------------14b16r14-12_--------------------------

-------------|-------------------------------------------------------------

-------------|-------------------------------------------------------------

-------------|-------------------------------------------------------------



Em Em C D

14b15r14--12_-|-17b19_-17b19-17b19-17b19-17b19-17b19r17-15---17b19r17-15---

--------15----|-------------------------------------------17------------17-

--------------|------------------------------------------------------------

--------------|------------------------------------------------------------

--------------|------------------------------------------------------------

--------------|------------------------------------------------------------



C D Em

-20b22_-20b22_------|

--------------17-17-|

--------------------|

--------------------|

--------------------|

--------------------|





Chorus:

Em D G C

If I knew that I'm your only one

C D B

I could live and make it through time



C D G Em (3 Vezes)

But if one day you'd just be gone

C D C D Em

I wouldn't know how to ever get by

C D C D Em

I wouldn't know how to ever get by

C D C D Em

I wouldn't know how to ever get by



C D Em

I would simply break down and cry







Letra subida por: Anónimo

Discos en los que aparece este acorde: Metal Hammer Collection , The Time Of The Oath

El acorde de If I Knew de Helloween es una versión de la canción original realizada por colaboradores/usuarios de Coveralia.

¿Has encontrado algún error en esta página? Envíanos tu corrección del acorde