música
Buscador

Acorde de Jaded - Aerosmith

Letra de Jaded

Intro: 

E|--------------------------------------------------------------|

B|--------------------------------------------------------------|

G|--------------------------------------------------------------|

D|------7---6~6-6-6-6-4---6~6p7h6-4-6-4---6~6p7h6-4-6-4---------|

A|----------0~0-----------0-0-------------0-0-------------------|

E|--------------------------------------------------------------|



E|----------------------------------------------------------|

B|----------------------------------------------------------|

G|--6-6-6-6/4-4---------------------------------------------|

D|--0-----0-------------------------------------------------|

A|----------------------------------------------------------|

E|----------------------------------------------------------|



Intro Chord:



Amaj7 - Amaj7 - A - Dmaj7 - D (2x)



A Amaj7

Hey ja-ja-jaded,

A

you've got your mama's style

Dmaj7 D A

But your yesterday's child to me

A

So jaded

Amaj7

You think that's where it's at

Dmaj7 D Bm

But is that where it's supposed to be

D Bm D

You're gettin' it all over me X-rated



A Amaj7 F#m C#m

My My ba__by blue

E

Yeah I've been thinkin' about you

A Amaj7 F#m C#m E

My My ba__by blue

D

Yeah you're so jaded

Bm - break

And I'm the one that jaded you





E|---------------------------------------

B|---------------------------------------

G|---------------------------------------

D|----------6~6-6-6-6-4---6~6p7h6-4-6-4--

A|----------0~0-----------0-0------------

E|------------------------------------





Hey ja-ja-jaded

In all it's misery

It will always be what I love and hated

And maybe take a ride to the other side

We're thinkin' of

We'll slip into the velvet glove

And be jaded



My my baby blue

Yeah I'm thinkin about you

My my baby blue

Yeah I'm so jaded

And baby I'm afraid of you



E|---------------------------------------

B|---------------------------------------

G|---------------------------------------

D|----------6~6-6-6-6-4---6~6p7h6-4-6-4--

A|----------0~0-----------0-0------------

E|------------------------------------



https://www.coveralia.com/acordes/jaded-aerosmith.php

Chord:



Amaj7



E D

Your thinking's so complicated

E Bm

I've had it all up to here

E D

But it's so overrated

C

Love and hate it

BM

Wouldn't trade it

Bb

Love me jaded

E D E Bm E D

---4-----------2--------|---4-----------2------5-|---4-----------2------------

------7---5-------5---3-|------7---5-------5-----|------7---5-------5---3-----

-4--4---4----2--2---2---|-4--4---4----4--2---2---|-4--4---4----2--2---2-------

------------------------|------------------------|----------------------------

------------------------|------------------------|----------------------------

------------------------|------------------------|----------------------------



C maj7 Bm Bb

---------------------------------------------

-------5br--------4br--------3br---3br--3br--

-----5----------4----------3-----------------

---5----------4----------3-------------------

-3----------2----------1---------------------

---------------------------------------------



Solo: Amaj7 - Amaj7 - A - Dmaj7 - D





--------------------2-4-5—-9br-9p7----7-----------------

--5-2-----------2-5---------------10---10-9-10v~~~~~~~...

------2-------2---------------------------------------

--------4-2-4-----------------------------------------

------------------------------------------------------



Hey

Ja ja jaded

There ain't no baby please

When I'm shootin' the breeze with her

When everything you see is a blur

And extasy's what you prefer



Chorus:

My my baby blue

(blue blue blue blue yeah)

Yeah I'm talkin' 'bout you

My my baby blue

(blue blue blue blue yeah)

Yeah I've been thinkin' 'bout you

My my baby blue

Dmaj7 - D

Yeah you're so jaded

F#m - A/F#

(Jaded)

Dmaj7 - D

Jaded

F#m - A/F#

(Jaded)

Dmaj7 - D

Your so jaded

Bm - break

Cause I'm the one that jaded you



Outro:

Amaj7 - Amaj7 - A - Dmaj7 - D (2x)





Letra subida por: Anónimo

¿Has encontrado algún error en esta página? Envíanos tu corrección del acorde