música
Buscador

Acorde de Jumping Someone Else's Train - The Cure

Letra de Jumping Someone Else's Train

Guitar 1 :  



Intro : (F#m , A , D ) x3 , C#m



Verse1 :



Bm C#m

Don't say what you mean

F#m

You might spoil your face

A

If you walk in the crowd

D

You won't leave any trace

C#m

It's always the same

Intro

You're jumping someone else's train





Verse2 :



Bm C#m

It won't take you long

F#m

To learn the new smile

A

You'll have to adapt

D

Or you'll be out of style

C#m

It's always the same

Intro

You're jumping someone else's train





Verse3 :



D E

If you pick up on it quick

Fm F#m

You can say you were there

D E

Again and again and again

Intro

You're jumping someone else's train





Verse4 :



Bm C#m

It's the latest wave

F#m

That you've been craving for

A

The old ideal

D

Was getting such a bore

C#m

Now you're back in line

Bm

Going not quite quite as far

A

But in half the time

G#m

Everyone's happy

F#m E

They're finally all the same

https://www.coveralia.com/acordes/jumping-someone-else-s-train-the-cure.php

Intro

'cause everyone's jumping everybody else's train





Guitar 2 :



Part 1 is played at the intro and between the lyrics . Part 2 is

played after Verse3 and part 3 at the end .



Part 1 :

e|-------------------------

B|-2-0-----------------7---

G|-----2---------------7---

D|-------4-2-0---------7---

A|-------------4-------5---

E|---------------2-2-------



e|---------------------9---

B|-2-0-----------------9---

G|-----2---------------9---

D|-------4-2-0---------10--

A|-------------4-------10--

E|---------------------9---





Part 2 :

e|-------------------------

B|-2-0-----------------7---

G|-----2---------------7---

D|-------4-2-0---------7---

A|-------------4-------5---

E|---------------2-2-------



e|---------------------9---

B|-2-0-----------------9---

G|-----2---------------9---

D|-------4-2-0---------10--

A|-------------4-------10--

E|---------------------9---



e|-------------------------------------9---

B|-2-0-------0-2-0-------0-2-0-------0-9---

G|-----2---2-------2---2-------2---2---9---

D|-------4-----------4-----------4-----10--

A|-------------------------------------10--

E|-------------------------------------9---





Part 3 :

e|-----------------

B|-2-----0-2---7---

G|-----2-------7---

D|-------------7---

A|-------------5---

E|-----------------





Chords :



F#m A(intro) D C#m Bm A(verse) E Fm G#m

e--2----0-------2-----4----2------5------0----1-----4----

B--2----2-------3-----5----3------5------0----1-----4----

G--2----2-------2-----6----4------6------1----1-----4----

D--4----2-------0-----6----4------7------2----3-----6----

A--4----0-------x-----4----2------7------2----3-----6----

E--2----x-------x-----x----x------5------0----1-----4----



Letra subida por: Anónimo

El acorde de Jumping Someone Else's Train de The Cure es una versión de la canción original realizada por colaboradores/usuarios de Coveralia.

¿Has encontrado algún error en esta página? Envíanos tu corrección del acorde