música
Buscador

Acorde de La Playa - La Oreja De Van Gogh

Letra de La Playa

Intro 



A E F#m D A E A

E---------------------------------------------

B---------------------------------------------

G-------------6-----7-6-----------------------

D-7---7-9---7-----7-----9-7-6-------7-----6-7-

A---7-----7-----7-------------9-7-7---567-----

E---------------------------------------------



Durante la estrofa:

A E F#m D A E

E---------------------------------------------

B---------------------------------------------

G---------------------------------------------

D--------9-7-6-7------------------------------

A------7--------------------------------------

E---------------------------------------------





A E F#m D

A E



A E

No si aun me recuerdas,

F#m D

nos conocimos al tiempo,

A

tú, el mar y el cielo

E

y quien me trajo a ti.



A E

Abrazaste mis abrazos,

F#m D

vigilando aquel momento

A

aunque fuera el primero

E

y lo guardara para mi.



D A C# F#m

Si pudiera volver a nacer

D E A C#

te vería cada día amanecer,

D Dm A E

sonriendo como cada vez,

D E A A7

como aquella vez...



D

Te voy a escribir

A

la canción más bonita del mundo,

C#

voy a capturar nuestra historia

F#m

en tan sólo un segundo,

D A

y un día verás que este loco

E

de poco se olvida,

D A

por mucho que pasen los años

E

de largo en su vida.

A E F#m D

A E



https://www.coveralia.com/acordes/la-playa-la-oreja-de-van-gogh.php

A E

El día de la despedida

F#m D

de esta playa de mi vida,

A

te hice una promesa:

E

volverte a ver así.



A E

Más de cincuenta veranos

F#m D

hace hoy que no nos vemos

A

ni tú, ni el mar, ni el cielo

E

ni quien me trajo a ti.



D A C# F#m

Si pudiera volver a nacer,

D E A C#

te vería cada día amanecer,

D Dm A E

sonriendo como cada vez,

D E A A7

como aquella vez...



D

Te voy a escribir la canción

A

más bonita del mundo,

C#

voy a capturar nuestra historia

F#m

en tan sólo un segundo,

D A

y un día verás que este loco

E

de poco se olvida,

D A

por mucho que pasen los años

E

de largo en su vida...



D

Y te voy a escribir la canción

A

más bonita del mundo,

C#

voy a capturar nuestra historia

F#m

en tan sólo un segundo,

D A

y un día verás que este loco

E

de poco se olvida,

D A

por mucho que pasen los años

E

por mucho que pasen los años

D A

de largo en su vida,

E

su vida...

D A E

su vida...

D E A

Letra subida por: Anónimo

¿Has encontrado algún error en esta página? Envíanos tu corrección del acorde