música
Buscador

Acorde de Last Child - Aerosmith

Letra de Last Child

Intro: ( C#m A7+ )x2 



C#m A7+ E F#

i'm dreaming tonight, i'm living back home

Eb (RIFF)

right!



E|-----------------------------------|

B|-----------------------------------|

G|-----------------------------------|

D|-----------------------------------|

A|------4-----------4/6--------------|

E|–4/6------6/4–6--------------------|



take me back to a south tallahasse

down cross the bridge to my sweet sassafrassy

can´t stand up on my feet in the city

gotta get back to the real nitty gritty

(Eb5 Db5 Ab Bbm)

yes sir, no sir

don't come close to my

home sweet home

can't catch no dose

of my hot tail poon tang sweetheart

sweathog ready to make a silk purse

from a j paul getty and his ear

(RIFF)

with her face in her beer

Db5 Ab Bbm Eb5 RIFF

home sweet home

RIFF

get out in the field

put the mule in the stable

ma' she's a cookin'

put the eats on the table

hate's in the city

and my love's in the meadow

hands on the plow

and my feet in the ghetto

Eb5 Db5 Ab Bbm

stand up, sit downdon't do nothing

it ain't no good when the bossman

stuffin' down their throats

for paper notes

and their babies cry

while cities lie at their feet

RIFF

when you're rockin' the street

RIFF ALTHERED BASS

home sweet home

https://www.coveralia.com/acordes/last-child-aerosmith.php



Solo - Eb5 Db5 Ab Bbm

E|-----------------------------------|

B|----------------------------4------|

G|----------------------4/6----------|

D|---------------4/5/6---------------|

A|--------4/5/6----------------------|

E-4/5/6-----------------------|



E|-----------------------------------|

B|--------------------4--------------|

G|--------------4/6------------------|

D|--------4/6------------------------|

A–4/5/6------------------------------|

E|-----------------------------------|



E—9/11--------------------15---------|

B|--------11/9/11--------------------|

G|------------------11—15------------|

D|-----------------------------------|

A|-----------------------------------|

E|-----------------------------------|



E–14—18/16/14------------------------|

B|---------------14/11/14------------|

G|-----------------------------------|

D|-----------------------------------|

A|-----------------------------------|

E|-----------------------------------|



RIFF WITH GUITAR BASE TOGETHER

mama, take me home sweet home

i was the last child

i'm just a punk in the street



Riff

E|----------------------------------|

B|----------------------------------|

G|----------------------------------|

D|----------------------------------|

A|-----4---------4/6----------------|

E–4/6----6—4/6----------------------|

Althered Riff

E|----------------------------------|

B|----------------------------------|

G|----------------------------------|

D|----------------------------------|

A—4-----------4/6-------------------|

E|-----6/4/6------------------------|

Letra subida por: Anónimo

¿Has encontrado algún error en esta página? Envíanos tu corrección del acorde