música
Buscador

Acorde de Lick It Up - Kiss

Letra de Lick It Up

Intro: A5 (abafado) 



A5 (abafado) ( Bm7 A ) 2x

Don't Wanna wait till you know me better

A5 (abafado) ( Bm7 A ) 2x

Let's just be glad for the time toghther

G ( Bm7 A ) 2x

Life's just a treat and it's time you taste it

G

There ain't no reason on earth to waste it

F5 G5

It ain't a crime to be good to your self



Bm7 A Bm7 A

Lick it up, Lick it up

G Bm7 A

Ah, Ah, Ah, It's only right now

Bm7 A Bm7 A

Lick it up, Lick it up

G Bm7 A

Ah, Ah, Ah, Ooh yeah

Bm7 A Bm7 A

Lick it up, Lick it up

G Bm7 A

Ah, Ah, Ah, Come on come on

Rhy. Fig 4

Lick it up Lick it up

G Bm7 A

Ah, Ah, Ah, Ooh



A5 (abafado) ( Bm7 A ) 2x

Don't need to wait for an invitation

A5 (abafado) ( Bm7 A ) 2x

You got to live like you're on vacation

G

There's something sweet you can't buy with money

Bm7 A

(Lick it up) Wooh

Bm7 A

(Lick it up)

G

It's all you need so believe me honey

F5 G5

It ain't a crime to be good to your self



Bm7 A Bm7 A

Lick it up, Lick it up

G Bm7 A

Ah, Ah, Ah, It's only right now

Bm7 A Bm7 A

Lick it up, Lick it up

G Bm7 A

Ah, Ah, Ah, Ooh yeah

Bm7 A Bm7 A

Lick it up, Lick it up

G Bm7 A

Ah, Ah, Ah, Come on come on

Bm7 A Bm7 A

Lick it up, Lick it up

G Bm7 A

Ah, Ah, Ah, come on



https://www.coveralia.com/acordes/lick-it-up-kiss.php

( F#5 G5 G5 F#5 G5 G5 A5 ) 4x

It's only right now

it's only right now

Ooh yeah, Ooh yeah

Ooh yeah, Ooh yeah

yeah yeah



Bm7 A (3x) junto c/ Riff 1

Bm7 A junto c/ Riff 2

Ooooooooh, woh



Bm7 A Bm7 A

Lick it up, Lick it up

G Bm7 A

Ah, Ah, Ah, It's only right now

Bm7 A Bm7 A

Lick it up, Lick it up

G Bm7 A

Ah, Ah, Ah, Ooh yeah

Bm7 A Bm7 A

Lick it up, Lick it up

G Bm7 A

Ah, Ah, Ah, Come on come on

Bm7 A Bm7 A

Lick it up, Lick it up

G Bm7 A

Ah, Ah, Ah...

Bm7 A Bm7 A

Lick it up, Lick it up

G Bm7 A

Ah, Ah, Ah, Yeah, yeah, yeah





Riff 1



E|--------------2-------------------------------------|

B|--------3--------3----------------------------------|

G|-----4-----4--------0--2----------------------------|

D|--5-----------------0--2----------------------------|

A|-----------------------0-----0--0--0--0--0--0--0----|

E|----------------------------------------------------|

Deixe soar - - - - >





Riff 2



E|--------------2-------------------------------------|

B|--------3--------3----------------------------------|

G|-----4-----4--------0--9--9----9----9----9----------|

D|--5-----------------0--9--9----9----9----9----------|

A|-----------------------7--7----7----7----7----------|

E|-----------------------0--0----0----0----0----------|

Deixe soar - - - > < - - - 3x - - - >



E|----------------------------------------------------|

B|----------------------------------------------------|

G|--9--9--9--9--9-------------------------------------|

D|--9--9--9--9--9-------------------------------------|

A|--7--7--7--7--7----12------------------------------|

E|--0--0--0--0--0-------------------------------------|

Letra subida por: Anónimo

¿Has encontrado algún error en esta página? Envíanos tu corrección del acorde