música
Buscador

Acorde de Life Is A Flower - Ace Of Base

Letra de Life Is A Flower

 A           Bm           G         D     A           Bm           G 



e ------0-----|------2---|------3---3-2---|------0-----|------2---|---3----|

B ------2-----|------3---|------3---3-3---|------2-----|------3---|---3----|

G --------2---|----------|-----------0----|--------2---|----------|---0----|

D ----2-------|----4-----|----0-----------|----2-------|----4-----|---0----|

A --0---------|--2-------|----------------|--0---------|--2-------|---2----|

E ------------|----------|--3-------------|------------|----------|---3----|





------------------------------

REFRAO

A Bm

We live in a free world



G Dsus4 - D

I whistle down the wind



A Bm

carry on smiling



G Dsus4 - D

and the world will smile with you



A Bm

life is a flower



G Dsus4 - D

so precious in your hand



A Bm

carry on smiling



G Dsus4 - D

and the world will smile with you



------------------------------

Verso



Bm A G D

When every race is run and the day is closing in



Bm A G D

I don't care about the world I'm living for the light



Bm A G D

don't cry for me today, oh



------------------------------

REFRAO



A Bm

We live in a free world



G Dsus4 - D

I whistle down the wind



A Bm

carry on smiling



G Dsus4 - D

and the world will smile with you



A Bm

life is a flower



G Dsus4 - D

so precious in your hand



A Bm

carry on smiling



G Dsus4 - D

and the world will smile with you



-------------------------------

Verso

https://www.coveralia.com/acordes/life-is-a-flower-ace-of-base.php



Bm A G D

I cannot be your judge Mr Jailer is your host



Bm A G D

he's keeping you inside, and hides you from the world



Bm A G D

no catcher in the rye can help you from yourself



------------------------------

REFRAO



A Bm

We live in a free world



G Dsus4 - D

I whistle down the wind



A Bm

carry on smiling



G Dsus4 - D

and the world will smile with you



A Bm

life is a flower



G Dsus4 - D

so precious in your hand



A Bm

carry on smiling



G Dsus4 - D

and the world will smile with you



------------------------------





A Bm G D

please Mr Agony release them for a while



A Bm G D

learn then the consequence of living without life



-------------------------------



REFRAO



A Bm

We live in a free world



G Dsus4 - D

I whistle down the wind



A Bm

carry on smiling



G Dsus4 - D

and the world will smile with you



A Bm

life is a flower



G Dsus4 - D

so precious in your hand



A Bm

carry on smiling



G Dsus4 - D

and the world will smile with you



---------------------------------

Letra subida por: Anónimo

El acorde de Life Is A Flower de Ace Of Base es una versión de la canción original realizada por colaboradores/usuarios de Coveralia.

¿Has encontrado algún error en esta página? Envíanos tu corrección del acorde