música
Buscador

Acorde de Livin' On The Edge - Aerosmith

Letra de Livin' On The Edge

Fly away from here 

Intro x2:

e----------------------------------------|

B----------------------------------------|

G--------------------4-4-----------------|

D----6----4----6------------7-4-2--------|

A----------------------------------------|

E----------------------------------------|





E

gotta find a way

G#m

yeah, I cant wait another day

A

aint nothin gonna change

Am

if we stay round here

E

gotta do what it takes

G#m

cuz it's all in our hands

A

we all make mistakes

Am

yeah, but it's never too late

C#m B A

to start again, take another breath

B A

and say another prayer





E G#

And fly away from here

A Am

Anywhere, yeah I don't care

E G#

Well just fly away from here

A Am

Our hopes and dreams are

C#m

Out there somewhere

B F#

Won?t let time pass us by

B F# A

We?ll just fly



Introduccion En A



If this life gets any harder now

It aint, no , never mind you got me by your side

Yeah, we can catch a train and find a better place

Yeah, cuz we wont let nothin

Or no one keep getting?us down

Maybe you and I



ocultar esta pestaña e------------------------|

B---0202---4-------------|

G------------------------|

D------------------------|

https://www.coveralia.com/acordes/livin--on-the-edge-aerosmith.php

A------------------------|

E------------------------|



Can pack our bags and hit the sky



And fly away from here

Anywhere, yeah I don't care

Well just fly away from here

Our hopes and dreams are

Out there somewhere

Wont let time pass us by

Well just fly



B

Do you see a bluer sky now

B

You can have a better life now

G A E

Open your eyes

B

Cuz no one here can ever stop us

B

They can try but we won?t let them

G A E

No way



Intermedio: E - C#m



A B

Maybe you and I

A

Can pack our bags and say goodbye

And fly away from here

Anywhere, honey I don't care

Well just fly away from here

Our hopes and dreams are

Out there somewhere



E G#

Fly away from here

A

Yeah, anywhere, honey

Am

i don't I don't I don't care





Solo:



e4---------------4------------------|

B--------7-----7--------7---5-------|

G-----------6-------------------6---|

D-----------------------------------|

A-----------------------------------|

e-----------------------------------|



A Am

yeah, well just fly



----------------------------------------------------------------

Letra subida por: Anónimo

¿Has encontrado algún error en esta página? Envíanos tu corrección del acorde