música
Buscador

Acorde de Mama Kin - Aerosmith

Letra de Mama Kin

Intro=(E B A E)4x  



Solo - A E A E F# B (G G# A A# B)



ocultar esta pestaña e|-14b------------------------------------------------------------

B|-----------12-11--------------------------12---14b--14b-14------

G|-----12p11-------14-12--------12----14--x----x------------------

D|-----------------------14--14----14-----------------------------

A|----------------------------------------------------------------

E|----------------------------------------------------------------



e|----------------------------------------------------------------

B|-12----14-----14p12----14p12----14p12----14p12----14p12----14p12

G|-------12-----12-------12-------12-------12-------12-------12---

D|----14-----14-------14-------14------ 14-------14-------14------

A|----------------------------------------------------------------

E|----------------------------------------------------------------



e|---------------------14b-14--12---------------------------------

B|----14--12-----------------------15--14-15-14-12----------------

G|---------------12--------------------------------12p11----------

D|-14----------------------------------------------------14-12----

A|----------------------------------------------------------------

E|----------------------------------------------------------------



e|----------------4b--2---------------------------------7-9b------

B|-12--12---------------4--2-------------------------x--------7---

G|-----------12\-------------2---1-----1h2p1h2p1h2/-------------7-

D|----------------------------------------------------------------

A|----------------------------------------------------------------

E|----------------------------------------------------------------



e|----------------------------------------------------------------

B|--------------7-10-7----7---------------------------------------

G|-7-9b-9b-9b-7---------9---7-9b-x-x-x-9b-x-9-9b------------------

D|----------------------------------------------------------------

A|----------------------------------------------------------------

E|----------------------------------------------------------------



(E B A E) x2





E B

It ain't easy livin' like a gypsy



A E

Tell you, honey, how it feels



E

I been dreaming floatin' down stream



A E

And losin' just what aal is real





E B

Whole lotta lover keepin' undercover



A E

Never knowin' where you've been, oh, yeah



B

You've been fading, always operatin'



A E

Keepin' touch with mama kin



A E

You've always got your tale on the way



A

Shooting fire from your mouth



E F# G

Just like a ray gun





G# A E

You act like a perpetual drag



F#

You better check it out or someday soon



B G G# A A# B

You're gonna climb back on the wag on





E B

It ain't easy livin' like you wanna



A E

And so hard to find peace of mind, yes ,it is



B

The way I see it you got to say shit



A E F# G G#

https://www.coveralia.com/acordes/mama-kin-aerosmith.php

But don't forget to drop me a line





A E

Bald as an egg in a dream



A E F# G

And workin' for your daddy's just a dragon



G# A E

You still don't know what it means



F#

You better check it out or someday soon



B G G# A A# B

You're gonna climb back on the wag on





E B

Keepin' touch with mama kin



E B

Tell her where you're gone and been



E B

Livin' out your fantasy



E B

Sleepin' late and smokin' tea



E A G D B

Keepin' touch with mama kin



E A G D B

Tell her where you're gone and been



E A G D B

Livin' out your fantasy



E A G D C B A G F#m A G F#m

Sleepin' late and suckin' me





E B

It ain't easy livin' like you wanna



A E

And so hard to find peace of mind, yes, it is



B

The way I see it you got to say shit



A E F# G G#

But don't forget to drop me a line





A E

Bald as an egg in a dream



A E F# G G#

And workin' for your daddy's just a drag



A E

You still don't know what this mean



F#

You better check it out or someday soon



B G G# A A# B

You're gonna climb back on the wag on





E B

Keepin' touch with mama kin



E B

Tell her where you're gone and been



E B

Livin' out your fantasy



E B

Sleepin' late and smokin' tea



E A G D B

Keepin' touch with mama kin



E A G D B

Tell her where you're gone and been



E A G D B

Livin' out your fantasy



E A G D C D E

Sleepin' late and suckin' me

Letra subida por: Anónimo

¿Has encontrado algún error en esta página? Envíanos tu corrección del acorde