música
Buscador

Acorde de Meteoro - Luan Santana

Letra de Meteoro

A                       E                      F#m                     D    

Te dei o sol, te dei o mar Pra ganhar seu coração Você é raio de saudade

A E F#m

Meteoro da paixão Explosão de sentimentos Que eu não puder acreditar

D (A E D/F# F#m E ) 2x

Ah! como é bom poder te amar



A E D/F# F#m E A

e-------------------------------------------------------------------|

B---------------------3/5---------5-5\3-3-----------7--5-7-5--------|

G---------------------2/4-4-4-4-4-4-4\2-2-2-2-2---------------5/6---|

D-------2-2-2-2-2-2-2---------------------------6/7-7--6-7-6--------|

A-0-2/4---0-0-0-0-0-0-----------------------------------------6/7---|

E-------------------------------------------------------------------|

E D/F# F#m E A

e---------------------------------------------9--7--9/7--5-----|

B--------------3/5---------5-5\3-3-----------------------------|

G--------------2/4-4-4-4-4-4-4\2-2-2-2-2--7\9-9--7--9/7--6-----|

D--2-2-2-2-2-2-------------------------------------------------|

A--0-0-0-0-0-0-------------------------------------------------|

E--------------------------------------------------------------|



A E F#m D A

Depois que eu te conheci fui mais feliz Você é exatamente o que eu sempre quis

E F#m D A

ela se encaixa perfeitamente em mim o nosso quebra-cabeça teve fim

D

se for sonho não me acorde eu preciso flutuar pois só quem sonha

E (E E D D)

consegue alcançar



A E F#m D

Te dei o sol, te dei o mar Pra ganhar seu coração Você é raio de saudade

A E F#m

https://www.coveralia.com/acordes/meteoro-luan-santana.php

Meteoro da paixão Explosão de sentimentos Que eu não puder acreditar

D (A E D/F# F#m E ) 2x

Ah! como é bom poder te amar



(verso) (refrão)



A E/G# F#m E D A

Tão veloz quanto a luz; No Universo eu viajei;

F#m E D E

Vem me guia, me conduz; Que pra sempre te amarei;



A E F#m D

Te dei o sol, te dei o mar Pra ganhar seu coração Você é raio de saudade

A E F#m

Meteoro da paixão Explosão de sentimentos Que eu não puder acreditar

D E E D E

Ah! como é bom poder te amar



A E F#m D

Te dei o sol, te dei o mar Pra ganhar seu coração Você é raio de saudade

A E F#m

Meteoro da paixão Explosão de sentimentos Que eu não puder acreditar

D F#m D (A E D/F# F#m E )

Ah! como é bom poder te amar Ah! como é bom poder te amar



A E D/F# E A

e-----------------------------------------------5-5~--------------------------|

B----------------------3/5------------------7-5------7/5-3/2-2p0-0-------2~---|

G----------------------2/4-4-4-4-4-4-4--5\7-----------------------------------|

D-------2-2-2-2-2-2-2----------------------------------------------2--4-------|

A-0-2/4---0-0-0-0-0-0---------------------------------------------------------|

E-----------------------------------------------------------------------------|

Letra subida por: Anónimo

Discos en los que aparece este acorde: To De Cara , Ao Vivo No Rio (Dvd)

El acorde de Meteoro de Luan Santana es una versión de la canción original realizada por colaboradores/usuarios de Coveralia.

¿Has encontrado algún error en esta página? Envíanos tu corrección del acorde