Quantcast
m鷖ica
Buscador

Acorde de Moratorium - Alanis Morissette

Letra de Moratorium

Intro: 



e|-1----1---1---1---1---1------------------------------------------------

B|----2---2---2---2---2---2----------------------------------------------

G|-----------------------------------------------------------------------

D|-----------------------------------------------------------------------

A|-----------------------------------------------------------------------

E|-----------------------------------------------------------------------



Bbm F Bbm F

I抳e never been this accountable-less and within

Bbm F Bbm F

I抳e never known focusless-ness on any form

Bbm F Bbm F

I抳e never had this lack of ache for dalliance,

Bbm F Bbm F

To let go, and let god in ways I have never even imagined



Bbm F

I declare a moratorium on things relationship

Bbm F

I declare a respite from the toils of liaison

Bbm F

I do need a breather from the flavors of entanglement

Bbm F

I declare a full time out from all things commitment



(Bbm F)

I抳e never let my grasp soften fingers like this

I抳e never been careless otherless like autonomy抯 twin



(Chorus)



Cm G

Ah to breathe

Cm G

Stop looking outside

https://www.coveralia.com/acordes/moratorium-alanis-morissette.php

Cm G Cm

Stop searching in corners of rooms

G

Not my business or timing

Cm G

Ahhh



(Bbm F)

I抳e never known freedom from intertwining

I start again this time for keeps in my skin I抦 residing



(Chorus)



Solo fim:



e|--------------------------|----------------------------------

B|--3/5--10𨃉--3--8--7--2-|--3/5--10--8--5--38--7--2--------

G|--------------------------|---------------------------------- (4x)

D|--------------------------|----------------------------------

A|--------------------------|----------------------------------

E|--------------------------|----------------------------------



e|-------------------------------------------------------------

B|-------------------------------------------------------------

G|------------------------------------------------------------- (2x)

D|--6/8--11--10--6--8--3--1--6---------------------------------

A|-------------------------------------------------------------

E|-------------------------------------------------------------



e|-------------------------------------------------------------

B|-------------------------------------------------------------

G|--13/15--18--17--13--15--10--8--13--------------------------- (2x)

D|-------------------------------------------------------------

A|-------------------------------------------------------------

E|-------------------------------------------------------------

Letra subida por: An髇imo

Discos en los que aparece este acorde: Flavors Of Entanglement , Flavors Of Entanglement (Deluxe Edition)

El acorde de Moratorium de Alanis Morissette es una versi髇 de la canci髇 original realizada por colaboradores/usuarios de Coveralia.

縃as encontrado alg鷑 error en esta p醙ina? Env韆nos tu correcci髇 del acorde