música
Buscador

Acorde de Morir Y Renacer - Elefante

Letra de Morir Y Renacer



INTRO: (D A Bm A) x2





D A

Es hora de decir adiós lo se

Bm A

Es hora de cambiar de dirección

D A

De no pensar en lo que pudo ser

Bm A

De no buscar alguna explicación.





(Aquí ya empiezas a rasguear)



D A Bm A

no, no

D A Bm A



D A

Atrás quedan los cines y el café

Bm A

Los sueños que ya no pudieron ser

D A

Las cosas que faltaron por hacer

Bm A

Los besos que jamás olvidare.



G D Em

Es tiempo de morir y renacer

G D Em

Es tiempo de ganar y de perder

A

Es mejor decir adiós oh, oh.



G A Bm

Me voy con los recuerdos y el olvido

D

Con el corazón partido

A

Y el silencio entre los dos

G A Bm

Me voy por que así lo hemos decidido

D

Fuel destino quien lo quiso

A

Y no es por falta de amor.



G



D (pausa) Bm

Ahí calles que ya no caminare

A D

Lugares que me duelen si no estas

A Bm

Canciones que jamás escuchare

A

Historia que se escriben sin final.



G D Em

Es tiempo de partir y de soñar

G A Em

Es tiempo de volar una vez más

A

https://www.coveralia.com/acordes/morir-y-renacer-elefante.php

Es mejor decir adiós.



G A Bm

Me voy con los recuerdos y el olvido

D

Con el corazón partido

A

Y el silencio entre los dos

G A Bm

Me voy por que así lo hemos decidido

D

Fuel destino quien lo quiso

A

Y no es por falta de amor. Oh no, no



Solo: (durante el solo tocas estos acordes: G Em A Bm G A )



E|---------------------------------------|

B|----10/12--12-12-12-10-8-8--5----------|

G|---------------------------------------|

D|---------------------------------------|

A|---------------------------------------|

E|---------------------------------------|



E|---------------------------------------|

B|-8-8-7--7-5-5-3---3---3-5--5/7-5-3---3-|

G|----------------4---4--------------4---|

D|---------------------------------------|

A|---------------------------------------|

E|---------------------------------------|



E|-----3-5-5/7----10/12-12-11h10--7-7-7--|

B|---5----------------------------8-8-8--|

G|---------------------------------------|

D|---------------------------------------|

A|---------------------------------------|

E|---------------------------------------|







G A Bm (aqui haces una pausa)

Me voy con los recuerdos y el olvido

D

Con el corazón partido

A

Y el silencio entre los dos

G A Bm

Me voy por que así lo hemos decidido

D

Fuel destino quien lo quiso

A

Y no es por falta de amor.





G A Bm

Si quieres llorar llora conmigo

D

Tu bien sabes lo que digo

A

Nos duele el mismo dolor.





Acaba con estos acordes: G D Bm A D

Letra subida por: Anónimo

Discos en los que aparece este acorde: Resplandor

El acorde de Morir Y Renacer de Elefante es una versión de la canción original realizada por colaboradores/usuarios de Coveralia.

¿Has encontrado algún error en esta página? Envíanos tu corrección del acorde