música
Buscador

Acorde de My Friends - Red Hot Chili Peppers

Letra de My Friends

Chords:

D C6(?) G C Asus2 A Csus2

|--2--|-------0-------|--3--|--3------0--|---0---|--0---|---3---|

|--3--|-------3-------|--3--|--3------1--|---0---|--2---|---3---|

|--2--|-------0-------|--0--|--0--or--0--|---2---|--2---|---5---|

|--0--|-------2-------|--0--|--2------2--|---2---|--2---|---5---|

|--X--|-------3-------|--X--|--3------3--|---0---|--0---|---3---|

|--X--|-------X-------|--3--|--X------X--|---X---|--X---|---3---|



E F# F B

|--0--|--2--|--1--|--X--|

|--0--|--2--|--1--|--4--|

|--1--|--3--|--2--|--4--|

|--2--|--4--|--3--|--4--|

|--2--|--4--|--3--|--2--|

|--0--|--2--|--1--|--X--|





(Intro)



| D | C6 | G | C | (x2)



(Verse 1)

D C6 G C

My friends are so depressed....I feel the

D C6 G C

Question of your loneliness....Confide...'cause

D C6 G C

I'll be on your side....You know I will...

D C6 G C

https://www.coveralia.com/acordes/my-friends-red-hot-chili-peppers.php

....You know I will.......





(2nd Verse)



(Chorus)

C Am C Bm A

I love all of you, Hurt by the cold

C Am C Bm A

So hard and lonely too, ...When you don't know yourself



(3rd Verse)



(Chorus)



(Solo) Same chords as intro (x4)

(Except the very last C chord is Csus2)



(Bridge)

E G F# F C B F

Imagine me taught by tragedy, Release is peace



(F chord builds into final verse)



(4th Verse)



(Chorus)



(Same chords as intro until end - I think!)

Letra subida por: Anónimo

El acorde de My Friends de Red Hot Chili Peppers es una versión de la canción original realizada por colaboradores/usuarios de Coveralia.

¿Has encontrado algún error en esta página? Envíanos tu corrección del acorde