música
Buscador

Acorde de No Me Empujes - Andres Calamaro

Letra de No Me Empujes

Intro: C - Am - F - G (x2)

C Am

No me importan todos tus problemas

F G

asi no te quiero conocer

C Am

no me empujes a otro abandono

F G

no es un buen momento para perder.

Como intro

Ya se van las luces

en el horizonte

todo tiene un final todo termina(presente)

por un momento te voy a dejar sola

no es un trago facil para mi



Zapatos de gamuza, zapatos de charol bailando al compás de la liberación

bailando en los rincones mas dorados de la ciudad

bailando sobre la sangre de los demas.



|-------------------------------------12--------------12--------12--

https://www.coveralia.com/acordes/no-me-empujes-andres-calamaro.php

|-------8---8 10/(11)\10-8----8-10\12----12-\-10-/-15----15-15/(17)-

|--7-\9---9----------------9----------------------------------------

|-------------------------------------------------------------------

|-------------------------------------------------------------------

|-------------------------------------------------------------------



|-----------------------------------------------------------------------------

|----------------------------------------8---10---8/10--------8--10/12-10/12--

|------7---9\7------------7-7/9--------9--------------------9-----------------

|--------9------------5/7-----------10-------------------10-------------------

|--5/7-----------5/7----------------------------------------------------------

|-----------------------------------------------------------------------------





Con un tono mas... D - Bm - G - A

D Bm

No me importan todos tus problemas...



no me empujes a abandonarte de nuevo...

Letra subida por: Anónimo

Discos en los que aparece este acorde: Por Mirarte

El acorde de No Me Empujes de Andres Calamaro es una versión de la canción original realizada por colaboradores/usuarios de Coveralia.

¿Has encontrado algún error en esta página? Envíanos tu corrección del acorde