música
Buscador

Acorde de Now And Forever - Richard Marx

Letra de Now And Forever

G  C/E  G  C/E  



G D/F# Em Am G6 Dsus2/F#

Whenever I'm weary from the battles that rage in my head,

You make sense of madness when my sanity hangs by a thread,



C B7 Em D5 C#m7(b5)

I lose my way but still you seem to understand,

Am7 Dsus D G

Now and forever, I will be your man.



Sometimes I just hold you Too caught up in me to see,

I'm holding a fortune that heaven has given to me,

I'll try to show you each and every way I can,

Now and forever, I will be your man.



B7 Em C G D

Now I can rest my worries and always be sure

Em C G D/F# Em C G D

that I won't be alone anymore, if I'd only known you were there

Am7 Cm(maj7)

all the time all the time.



solo: G D/F# Em Am G6 Dsus2/F# G D/F# Em Am G6 Dsus2/F#



Guitar solo:



e-----------------------------------------------------------------

b--0---0(2)0-----0--2--2/4-------4--5--2--4--5---5(7)5--4--0--2---

https://www.coveralia.com/acordes/now-and-forever-richard-marx.php

g-------------2---------------------------------------------------

d-----------------------------------------------------------------

a-----------------------------------------------------------------

E-----------------------------------------------------------------





e--------------------------3--------2--2(3)2-------7--7(8)--7-7---

b---------------------------------------------3/5-----------------

g-----------0--2--4--5--4-----4--2--------------------------------

d--0--2--4--------------------------------------------------------

a-----------------------------------------------------------------

E-----------------------------------------------------------------





e--5--7--3--------3--3-----3/5--5--5--3--2(3)2--------------------

b-----------3--3--------3-----------------------3/5---------------

g----------------------------------------------------2--4--5------

d-----------------------------------------------------------------

a-----------------------------------------------------------------

E-----------------------------------------------------------------





C B7 Em D5 C#m7(b5)

Until the day the ocean doesn't touch the sand,

Am7 Dsus D G C/E

Now and forever, I will be your man.

Am7 Dsus D C Cm(maj7) G C/E D/F# G

Now and forever, I will be your man.

Letra subida por: Anónimo

Discos en los que aparece este acorde: Paid Vacation , Greatest Hits , Five Live , Ballads (Then, Now And Forever) , , , Stories To Tell

El acorde de Now And Forever de Richard Marx es una versión de la canción original realizada por colaboradores/usuarios de Coveralia.

¿Has encontrado algún error en esta página? Envíanos tu corrección del acorde