música
Buscador

Acorde de One Of Those Nights - Tim Mcgraw

Letra de One Of Those Nights

 "One Of Those Nights" 



e|-------------10----10-----------7-7----5-7-5------7-7----5-7-5-----------|

B|-13-12-------------------13-12-------8-------8-8-------8-------8---5-8---|

G|-------12-12----12----12-----------------------------------------7-------|

D|-------------------------------------------------------------------------|

A|-------------------------------------------------------------------------|

E|-------------------------------------------------------------------------|



e|-7-7----5-7-5-----7-7------------------------|

B|------8-------8-8----------------------------|

G|-----------------------7---------------------|

D|-------------------------9-7h9p7----7-9-7----|

A|---------------------------------10-------10-|

E|---------------------------------------------|







(verse)



G

She's getting dressed up, putting on that lipstick

C

Shimmy shaking, ride into them cut-offs baby, oh yeah

G

You're getting off work, cashing up that paycheck

C

Gotta change that shirt and pick that girl up on her front step

D

Here she comes now looking so fine

D C D

You've been waiting on this night for such a long, long time







G

She slides in and you rode down Main Street,

C

You turn right when that red light turns green

G

Sun sets now, you're half way to heaven

C

She picks a song, you turn it up to 11

G

You say "do you wanna?" and she says "hell yeah"

C

So you hit the party, all your buddies are jealous

G

Someday you'll be looking back on your life

C G

At the memories, this is gonna be one of those nights









e|-7-7----5-7-5------7-7----5-7-5---------|

B|------8-------8-8-------8-------8---5-8-|

G|----------------------------------7-----|

D|----------------------------------------|

A|----------------------------------------|

E|----------------------------------------|







(verse)



G

Crowded backyard, everybody's laughing

C

Kinda party, next week you'll say I was there when it happened

G

Coming up on midnight, bout time to get going

C

And then the DJ starts to play your favorite song

D C D

https://www.coveralia.com/acordes/one-of-those-nights-tim-mcgraw.php

You slow dance for 3 minutes or so, and then she whispers baby lets go







G

And then she slides in and she gives you the green light

C

You hold off till you turn on the headlights

G

Someday when you're looking back on your life

C G

At the memories, this is gonna be one of those nights

G C

Yeah one of those nights







(2x, improvise)

e|-7-7----5-7-5-----7-7------------------------|

B|------8-------8-8----------------------------|

G|-----------------------7---------------------|

D|-------------------------9-7h9p7----7-9-7----|

A|---------------------------------10-------10-|

E|---------------------------------------------|







G C



(bridge)



G

Full moon through a crack in the windshield

C G

You hold her close and you'll never forget how her heartbeat feels

C

No you never will

G

Cause someday when you're looking back on your life

C G

At the memories, this is gonna be one of those nights







C

Yeah one of those nights

G

One of those nights,

C

Yeah one of those nights

G C

One of those nights, oh--oooh

G

One of those nights

C

This is gonna be, hey

G

This is gonna be

C

One of those nights





(Repeat, improvise)

e|-7-7----5-7-5------7-7----5-7-5---------|

B|------8-------8-8-------8-------8---5-8-|

G|----------------------------------7-----|

D|----------------------------------------|

A|----------------------------------------|

E|----------------------------------------|







G C G C G

Oh oh

Letra subida por: Anónimo

El acorde de One Of Those Nights de Tim Mcgraw es una versión de la canción original realizada por colaboradores/usuarios de Coveralia.

¿Has encontrado algún error en esta página? Envíanos tu corrección del acorde