música
Buscador

Acorde de One Way Street - Aerosmith

Letra de One Way Street

Intro: (Ab Gm) x4 (Eb   Cm    Ab    Gm)   Fm 



E|–11rrrrrr----8/11--------------8/11-------------8-----|

B|------------------------8/11--------------8/11--------|

G|------------------------------------------------------|

D|------------------------------------------------------|

A|------------------------------------------------------|

E|------------------------------------------------------|



E|-11rrrrrr–8/11------------8/11---------------------13—16/15—14---|

B|-------------------8/11--------------8/11—11/14------------------|

G|-----------------------------------------------------------------|

D|-----------------------------------------------------------------|

A|-----------------------------------------------------------------|

E|-----------------------------------------------------------------|



E|------------------------------------------------------|

B|—14/11-------14rrrrrr---------------------------------|

G|------------------------------------------------------|

D|------------------------------------------------------|

A|------------------------------------------------------|

E|------------------------------------------------------|



Gm

Yeah... (soft)

Eb Cm

Hey look out yonder what's that I see



Ab Gm

Well that old bogus honey coming after me

Eb Cm

I thought you told her I was out of town

Ab Gm

I wonder how she knowed I was hangin' around

Eb Cm

Say listen baby don't go wastin' yo time

Ab Gm

You keep a comin' round you'll hear the same old line

Eb Cm

You got a thousand boys you say you need'em

Ab Gm

You take what's good for you and i'll take my freedom

Eb Cm

'Cause lately it's been so hard now to make ends meet

Ab Gm

Ooooooh....yes it has

Eb Cm

And honey your head's a one way street

Ab Bb Fm

And I gotta go the other way

Eb Cm

Ha ha ha ha ha ha ...I thought I knew her my cagey lady

Ab Gm

How could my sunshine be so damn shady

Eb Cm

She'll say she'll love to talk a conversation

Ab Gm

But i'm the one that makes my situation

Eb Cm

This one way city that I thought I knew

Ab Gm

It's such a pity honey that's it for you

Eb Cm

Because lately it's been so hard now to make ends meet

Ab

And honey your head's a one way street

Bb Gm Gb Fm

I just gotta go the other wayHa ha ha ha ha



(Eb Cm Ab Gm)

E|–11rrrrrr----8/11--------------8/11-------------8-----|

B|------------------------8/11--------------8/11--------|

G|------------------------------------------------------|

D|------------------------------------------------------|

A|------------------------------------------------------|

E|------------------------------------------------------|



E|-11rrrrrr–8/11------------8/11---------------------13—16/15—14-----|

B|-------------------8/11--------------8/11—11/14--------------------|

G|-------------------------------------------------------------------|

D|-------------------------------------------------------------------|

A|-------------------------------------------------------------------|

E|-------------------------------------------------------------------|



E|------------------------------------------------------|

B|—14/11-------14rrrrrr---------------------------------|

G|------------------------------------------------------|

D|------------------------------------------------------|

A|------------------------------------------------------|

E|------------------------------------------------------|





You know what i'm talkin' about baby

? (I've seen how those butterfly tie good on those pants) ?

I'm gonna get me some a that

Eb Cm

https://www.coveralia.com/acordes/one-way-street-aerosmith.php

Ha ha haUuhh.... there's nothin' over here I never showed ya

Ab Gm

I made it pretty clear I'm glad to know ya

Eb Cm

You know your brother spike he's on the level

Ab Gm

But you always lookin' like your mad at the devil

Eb Cm

Don't say I cop a 'tude it's all forgotten



Ab Gm

It's just you're much too rude your fruits are rotten

Eb Cm

You know I work so hard to keep it alive

Ab Gm

Now all I hear from you is nothin' but jive

Eb Cm

Because lately it's been so hard now to make ends meet...hey

Ab Gm Gb Fm

And honey your head's a one way street

Bb Eb

And I gotta go the other way ay ay... yes I do... yeahYeah...



Solo - ( Eb5 D5 C5 Bb5 C5) ( Eb5 Cm Ab Gm Fm)



E|-------------6/8---------------------------------------------------|

B|----6/8--------------8/6-------------------------------------------|

G|------------------------------8/5-----3----------------------------|

D|---------------------------------------------5/3-------------------|

A|-------------------------------------------------------------------|

E|-------------------------------------------------------------------|



E|---------------8/11-------13-----11/8------------------------------|

B|—8/11-----------------------------------11/8-----------------------|

G|----------------------------------------------------10/8-----------|

D|--------------------------------------------------------------8/10-|

A|-------------------------------------------------------------------|

E|-------------------------------------------------------------------|



E|-------------------------------------------------------------------|

B|-------------------------------------------8/9---------------------|

G|-----------------------8/10/11—10----------------------------------|

D|-------------8/10--------------------------------------------------|

A|–8/9/10------------------------------------------------------------|

E|-------------------------------------------------------------------|



E|---------------------1/3----4----------6-------------8-------------|

B|---------------1/3-----------------6----------8----------------11--|

G|--------1/3--------------------------------------------------------|

D|-1/3---------------------------------------------------------------|

A|-------------------------------------------------------------------|

E|-------------------------------------------------------------------|



E|----------11-------------------------------------------------------|

B|—14--------------------------------1/3-----------------------------|

G|------------------------------1/3--------------5/3/5---------------|

D|---------------------1/3-------------------------------------------|

A|-------------------------------------------------------------------|

E|-------------------------------------------------------------------|





Fm Eb Cm

oh lately it's been so hard now to make ends meet

Cm

And honey your head's a one way street

Bb

And I really do feel that I got to be movin' on



Solo - ( Eb Cm Ab Gm)

(Eb Cm Ab Gm)

Hey hey hey umhey......

Hey baby... hey baby... hey baby... hey oh baby

And your head's like a one way street

Yeah you're foolin' everybody you meet

I said your head's like a one way street

And you're foolin' everybody you meet

I said your head's like a one way street

Well you're foolin' everybody but me

I said your head's like a one way street

And you're foolin' everybody you meet

I said you're head's like a one way street

When you're foolin' everybody you meet

I said you're head's like a one way street

When you're foolin' everybody you meet

I said you're head's like a one way street

You got to get yourself back on your feet

Well... no baby fooling everybody you meet

Oh oh oh... oh oh oh... oh... oh... oh...

Oh baby humming everybodyChewing everybodyBooting everybody

Loving everybody

Fm Eb

Licking everybody you meet

( And after Eb slide to fret position

with the finger in the first house)

Letra subida por: Anónimo

Discos en los que aparece este acorde: Aerosmith , Pandora's Box , Box Of Fire , Rock For The Rising Sun (Dvd)

El acorde de One Way Street de Aerosmith es una versión de la canción original realizada por colaboradores/usuarios de Coveralia.

¿Has encontrado algún error en esta página? Envíanos tu corrección del acorde