música
Buscador

Acorde de Play For Today - The Cure

Letra de Play For Today

 Harmonics only 

E|---12--7------5---7---------------------12--7------5--7---------------------

B|-12-----7----5-----7-----12-----------12-----7----5----7-----12-------------

G|---------7--5-------7--12-----12----12--------7--5------7--12----12----12---

D|---------------------7----------12-----------------------7---------12----12-



Regular notes

E|-------------------------------------------3

B|-------------------------------------------5

G|----6---6-------5----5-----------5---4-----4

D|------------6------------------------------5

A|--4---4---4---4----4---4-----3-3---3---3---3

{end_of_tab}



Bm A Bm

It's not a case of doing what's right

A Bm

It's just the way I feel that matters

A G

Tell me I'm wrong, I don't really care



It's not a case of share and share alike

I take what I require

I don't understand... you say it's not fair



https://www.coveralia.com/acordes/play-for-today-the-cure.php

C#m D

You expect me to act like a lover

C#m D

Consider my moves and deserve the reward

C#m D

To hold you in my arms

C#m Cmaj7 Bm A Bm A

And wait... and wait for something to happen



It's not a case of telling the truth

Some lines just fit the situation

You call me a liar, you would anyway



It's not a case of aiming to please

You know you're always crying

It's just your part in the play for today



E D E D E D C#m Cmaj7 Bm A Bm A G



Solo: F# Em







Letra subida por: Anónimo

El acorde de Play For Today de The Cure es una versión de la canción original realizada por colaboradores/usuarios de Coveralia.

¿Has encontrado algún error en esta página? Envíanos tu corrección del acorde