música
Buscador

Acorde de Por Verte Sonreir - La Fuga

Letra de Por Verte Sonreir

INTRO:

C* G D

E |-----------------------------------3-2---3-2-------|

B |--------3-------------3------------3-3---3-3-------|

G |------0---0---0-----0---0---0----2-----2-----2---2-|

D |----2-------2-----0-------0----0---------------0---|

A |--3-------------2----------------------------------|

E |---------------------------------------------------|



C* G Am Am* Am

E |------------------------------------0--0------

B |--------3-------------3--------3-1--3--1------

G |------0---0---0-----0---0----2------2--2------

D |----2-------2-----0--------2--------2--2------

A |--3-------------2----------0--------0--0--0-2-

E |----------------------------------------------



*: Acordes de DoM y Lam pisando el tercer traste de la

segunda cuerda, obteniendo un Re que suena mazo bien.



Guitarra 1: Punteo. Guitarra 2: Acordes.



C G D

Hace tiempo prometí escribirte una canción,

C G Am

como siempre, mal y tarde, la tienes aquí,

C G D

sabes bien, como soy, que no suelo mentir

C G Am

siempre que lo hice fue por verte sonreír.



Only acordes:



:: ESTRIBILLO ::

C Em D

LLámame, te quiero escuchar,

https://www.coveralia.com/acordes/por-verte-sonreir-la-fuga.php

C Em D

ya lo ves, no siempre me va bien,

C Em D

al cantar, me duele el corazón,

C Em D

y enloquezco cada noche en cada actuación.



C G D

Fuí yo quien dijo no y ahora en la misma mesa

C G Am

se me enfría el café mientras dices que te va bien.

C G D C G

Tranquila, ya no volveré a llamar, no me volverás a ver

Am D

esta vez, me marcho para no volver.



:: estribillo ::



G D Em

Y ahora, cansado de mirar tu foto en la pared,

C D G

cansado de creer que todavía estás,

D Em

me he puesto a recordar las tardes del café

C D G

las noches locas que, siempre acababan bien.

D

Y me he puesto a gritar estrellando el whisky

Em C D

en la pared. Por verte sonreír, he vuelto yo a perder.



:: estribillo ::





Letra subida por: Anónimo

El acorde de Por Verte Sonreir de La Fuga es una versión de la canción original realizada por colaboradores/usuarios de Coveralia.

¿Has encontrado algún error en esta página? Envíanos tu corrección del acorde