música
Buscador

Acorde de Rendezvous - Bruce Springsteen

Letra de Rendezvous

 



e|-x--x--x--x--x--x--x------------------------------------------------------|

B|-1--1--1--1--1--1--1------------------------------------------------------|

G|-2--0--2--0--2--3--2------------------------------------------------------|

D|-3--3--3--3--3--3--3------------------------------------------------------|

A|-3--3--3--3--x--x--3------------------------------------------------------|

E|-x--x--x--x--x--x--x------------------------------------------------------|



F Bb

I had a dream our love would last forever

F

I had a dream, tonight my dream comes true

C Dm

Well, if you hold me tight

Gm Bb

We'll be riders, girl on the night

C F

Ooh...I want a rendezvous



Haven't I told you girl

Bb F

How much I like you, I got a feeling that you like me too

C Dm

Well if you'll hold me tight

Gm Bb

We'll be riders girl on the night

C F

Ooh...I want a rendezvous





e|--------------------------------------------------------------------------|

B|--------------------------------------------------------------------------|

G|--------------------------------------------------------------------------|

D|--------------------------------------------------------------------------|

A|------0-1-0---------------------------------------------------------------|

E|-3-1-3-------3-1----------------------------------------------------------|



Dm Bb Eb Eb Bb (see bottom of tab)

You deserve so much more than this girl

https://www.coveralia.com/acordes/rendezvous-bruce-springsteen.php

Dm Gm

Well I'm ridin' on the power and living on the promise

Bb C

Of your last kiss



F Bb

Because I had a dream our love would last forever

F

I had a dream, tonight my dream comes true

C Dm

And if you'll hold me tight

Gm Bb

We'll be riders, girl, for all of the night

C Am Dm Bb C F

Ooh, ooh, ooh rendezvous



F

I want a rendez, I want a rendez, I want a rendezvous



Ending



F Bb Am C F





e|-5---6---5---8---5--------------------------------------------------------|

B|-6---6---5---8---6--------------------------------------------------------|

G|-5---7---5---9---5--------------------------------------------------------|

D|-x---x---x---x---x--------------------------------------------------------|

A|-x---x---x---x---x--------------------------------------------------------|

E|-x---x---x---x---x--------------------------------------------------------|



For the Bb Eb progression...



e|-------------------------------------------------------------------------|

B|-3-3--3--4--4--3--3------------------------------------------------------|

G|-3-3--3--5--5--3--3------------------------------------------------------|

D|-3-3--3--3--3--3--3------------------------------------------------------|

A|-------------------------------------------------------------------------|

E|-------------------------------------------------------------------------|

Letra subida por: Anónimo

Discos en los que aparece este acorde: 18 Tracks , The Promise , The Promise (Deluxe Edition) , Tracks Cd 1 Y 3

El acorde de Rendezvous de Bruce Springsteen es una versión de la canción original realizada por colaboradores/usuarios de Coveralia.

¿Has encontrado algún error en esta página? Envíanos tu corrección del acorde