música
Buscador

Acorde de Saturday Night - The Misfits

Letra de Saturday Night

       Intro: 

E|---------------------------------------------------------------------------------|

B|---------------------------------------------------------------------------------|

G|---------------------------------------------------------------------------------|

D|-/6-6-6-6-6--6-6-6---3-3-3-3-3--3-3-3--------------------------------------------|

A|-/4-4-4-4-4--4-4-4---1-1-1-1-1--1-1-1---4-4-4-4-4--4-4-4---/6-6-6-6-6--6-6-6-----|

E|----------------------------------------2-2-2-2-2--2-2-2---/4-4-4-4-4--4-4-4-----|

↓ ↓ ↑ ↓ ↑ ↑ ↓ ↑ ↓ ↓ ↑ ↓ ↑ ↑ ↓ ↑ ↓ ↓ ↑ ↓ ↑ ↑ ↓ ↑ ↓ ↓ ↑ ↓ ↑ ↑ ↓ ↑



SOLO Intro:

E|-----------------------------------------------------------------------|

B|-----------------------------------------------------------------------|

G|----------------------------------------------------------------6------|

D|----------------------------------------------------------------6------|

A|-4~~~~--6/8--6--4--6-6/8--4~~~-4--6-6/8--4~~~--6-4-3~~~--3-4-6--4------|

E|-----------------------------------------------------------------------|



SOLO Intro: alternativo mais completo

E|------------------------------------------------------------------------------|

B|------------------------------------------------------------------------------|

G|--------------------------------------------------------------------------4---|

D|--------------------------------------------------------------------------6---|

A|-4~~~~--6/8--6/4----6-6/8--6/4~~~-6-4-6---6/8--6/4~~~--6-4-3~~~--3-4-6----6---|

E|------------------------------------------------------------------------------|



PRIMEIRA PARTE:

M C#5 Bb5 F#5 G#5

E|--------------------------------------------------------------------------------------------------------|

B|--------------------------------------------------------------------------------------------------------|

G|--------------------------------------------------------------------------------------------------------|

D|-6-6-6-6--6-6-6-6-6-6-6---3-3-3-3--3-3-3-3-3-3-3--------------------------------------------------------|

A|-4-4-4-4--4-4-4-4-4-4-4---1-1-1-1--1-1-1-1-1-1-1--4-4-4-4--4-4-4-4-4-4-4--6-6-6-6--6-6-6-6-6-6-6----|

E|--------------------------------------------------2-2-2-2--2-2-2-2-2-2-2--4-4-4-4--4-4-4-4-4-4-4----|

P.M . . . . . . . . . . . . . . . . . , . . . . . . . . , . . . . . . . . ,



* Só palhetar para baixo



C#5 Bb5

There's 52 ways to murder anyone

F#5

One & two are the same,

G#5

and they both work as well

C#5

I'm coming clean for Amy,

Bb5

Julie doesn't scream as well and the

F# G#5

cops won't listen all night





C#5 Bb5

So maybe, maybe I'll be over

F#5 G#5

Just as soon as I fill them all in

F# G#5 C#5

And I can't remember when I saw her last

F#5 G#5 C#5

We were ru1nning all around and having a blast, *Acordes em PM



having a blast

F#5 G#5

But the back seat of the drive-in is so

C#5 Bb5 F#5 G#5

lonely without you I know when youre home



https://www.coveralia.com/acordes/saturday-night-the-misfits.php

C#

I was thinking about you,

Bb

there was something I forgot to say

F# G# C#

I was crying on a Saturday night



I was out cruising without you,

Bb

they were playing our song

F# G# C#

Crying on Saturday Night



E|-----------------------------------------------------------------------|

B|-----------------------------------------------------------------------|

G|----------------------------------------------------------------8------|

D|----------------------------------------------------------------8------|

A|-4~~~~--6/8--6--4--6-6/8--4~~~-4--6-6/8--4~~~--6-4-3~~~--3-4-6--6------|

E|-----------------------------------------------------------------------|



Segunda Parte

D#5 C5

As the moon becomes the night time

G#5 Bb5

you go viciously, quietly away

D#5

I'm sitting in the bedroom,

C5

where we used to sit and smoke cigarettes now *Mesma batida da primeira parte, mudm apenas os acordes

G#5 Bb5

I'm watching, watching you die

G# Bb5 D#5

And I can't remember when I saw her last

G#5 Bb 5 D#5

We were running all around and having a blast

G# Bb5

But the back seat of the drive-in 's

D# C5

so lonely without you

G#5 Bb5

I know when you're home

D#5

I was thinking about you,

C5

there was something I forgot to say

G#5 Bb5 D#5

I was crying on a Saturday night



I was out cruising without you,

C5

they were playing our song

G#5 Bb5 D#5 * D# D C Bb

Crying on Saturday Night

G# Bb D# * D# D C Bb

Crying on Saturday Night

G# Bb D#

Crying oooooon Sa-tur-daaaay Niiiight



* e|---------------------------------------------|

B|---------------------------------------------|

G|--8---7---5--5-5--5-5------------------------|

D|--x---x---x--x-x--x-x---8--------------------|

A|--6---5---3--3-3--3-3---x--------------------|

E|------------------------6--------------------|

Letra subida por: Anónimo

Discos en los que aparece este acorde: Famous Monsters , Dea.d. Alive!

El acorde de Saturday Night de The Misfits es una versión de la canción original realizada por colaboradores/usuarios de Coveralia.

¿Has encontrado algún error en esta página? Envíanos tu corrección del acorde