música
Buscador

Acorde de Sin Documentos - Andres Calamaro

Letra de Sin Documentos



LAm MI

E||-0-0-0-0-1-0-------0-0-0-0-0-1-0-------0---0-0-1-3-------|

B||-------------1---1---------------1---1-------------------|

G||---------------2-------------------2---------------------|

D||---------------------------------------------------------|

A||---------------------------------------------------------|

E||---------------------------------------------------------|

FA MI

E||-0-0-1-3-1--1-0-0----------------------------------------|

B||------------------3-3-1-0--------------------------------|

G||--------------------------2-3----------------------------|

D||---------------------------------------------------------|

A||---------------------------------------------------------|

E||---------------------------------------------------------|



LAm MI

Dejame atravesar el viento sin documentos,

FA MI MI7

que lo hare por el tiempo que tuvimos.

LAm MI

porque no queda salida, porque pareces dormida,

FA MI

porque buscando tu sonrisa estaría toda mi vida.



FA MI

quiero ser el unico que te muerda la boca,

FA MI

quiero saber que la vida contigo no va a terminar.



LAm MI

dejame que te cierre esta noche los ojos

FA MI

y mañana vendre con un cigarro a la cama,

LAm MI

porque no tengo mas intenciones que seguir

FA MI

bebiendo de esta copa que no está tan rota.



FA MI

quiero ser el unico que te muerda la boca,

FA MI

quiero saber que la vida contigo no va a terminar.



((CORO))

LAm LAm LAm

porque si, porque si, porque si,

MI

porque en esta vida no quiero

FA MI

pasar un dia entero sin ti.

LAm LAm LAm

porque si, porque si, porque si,

MI

porque mientras espero por ti me muero

FA MI MI7

y no quiero seguir asi Huhuuu



----------------------



LAm MI

E||-0-0-0-0-1-0-------0-0-0-0-0-1-0-------0---0-0-1-3-------|

B||-------------1---1---------------1---1-------------------|

G||---------------2-------------------2---------------------|

D||---------------------------------------------------------|

A||---------------------------------------------------------|

https://www.coveralia.com/acordes/sin-documentos-andres-calamaro.php

E||---------------------------------------------------------|

FA MI

E||-0-0-1-3-1--1-0-0----------------------------------------|

B||------------------3-3-1-0--------------------------------|

G||--------------------------2-3----------------------------|

D||---------------------------------------------------------|

A||---------------------------------------------------------|

E||---------------------------------------------------------|

LAm MI

Dejame atravesar el viento sin documentos,

FA MI MI7

que lo hare por el tiempo que tuvimos.

LAm MI

porque no queda salida, porque pareces dormida,

FA MI

porque buscando tu sonrisa estaría toda mi vida.



FA MI

quiero ser el unico que te muerda la boca,

FA MI

quiero saber que la vida contigo no va a terminar.



LAm LAm LAm

porque si, porque si, porque si,

MI

porque en esta vida no quiero

FA MI

pasar un dia entero sin ti.

LAm LAm LAm

porque si, porque si, porque si,

MI

porque mientras espero por ti me muero

FA MI

y no quiero seguir asi Huhuuu





FA MI

quiero ser el unico que te muerda la boca,

FA MI

quiero saber que la vida contigo no va a terminar.



FA MI

hay quiero ser el unico que te muerda la boca,

FA MI

quiero saber que la vida contigo no va a terminar.





LAm

porque si, (porque si)

MI

porque en esta vida no quiero

FA MI7

pasar más de un dia entero sin ti.

LAm

porque si, (porque si)

MI

porque mientras espero por ti me muero

FA

y no quiero seguir asi Haahoo



INTRO



LAm - LAm - LAm



Letra subida por: Anónimo

Discos en los que aparece este acorde: Made In Argentina 2005 (Dvd) , Pura Sangre (Dvd)

El acorde de Sin Documentos de Andres Calamaro es una versión de la canción original realizada por colaboradores/usuarios de Coveralia.

¿Has encontrado algún error en esta página? Envíanos tu corrección del acorde