música
Buscador

Acorde de Soldado De Papel (Feat. Tomatito) - David Bisbal

Letra de Soldado De Papel (Feat. Tomatito)





Intro:



(palm muted) guitarra flamenca

e --------------------* e -----------------------*

B ----------5--4------* B ----5-4-5-7---5p4h5----*

G -------6--------6---* G -----------------------*

D --------------------*x4 D -----------------------*

A --4-4---------------* A -----------------------*

E --------------------* E -----------------------*





C#m7 A (Fill 1)

Hay un lugar donde no hay sol, solo dolor



Fill 1

e ---------------12--11---9p7-----------7--------7h9p7---------*

B ----------9-10--------------10---9-10-----10-9--------10-9---*

G --------9----------------------------------------------------*

D -----11------------------------------------------------------*

A --12---------------------------------------------------------*

E -------------------------------------------------------------*



C#m7 A

Sin marcha atrás, ni dirección, tienes que luchar

F#m G#m A E F#m

No, no han crecido y ya tienen valor, no han vivido y mueren por error

G#m A B

Y su juego lo destruye el fuego, son niños...







C#m B

¿Quién puso en tus palmas odio de regalo?

A B

¿Quién con tanta ira te lastima?

C#m B F#m A

¿Cómo pudo la inocencia convertirse en destrucción?

C#m B

¿Quién te habrá robado el mundo en un disparo?

A B

¿Quién le puso precio a tu vida?

C#m B F#m

¿Cómo vive la conciencia con tanto dolor?

A B C#m7

Dime ¿quién? ¿cómo? y ¿por qué?... soldado de papel



Fill 2

e ------------------------------------------

B ---9-9-9----------------------------------

G ----------11-11-11--9-9-9-8-11---9p8h9----





C#m7 A

De plomo no son, su piel es real, mil y uno caerán

C#m7 A

No, no importa la edad ellos sufrirán, es una bala más

F#m G#m A E F#m

No,no han crecido y ya tienen valor, no han vivido y mueren por error

G#m A B

Y su juego lo destruye el fuego, son hijos... del miedo





C#m B

¿Quién puso en tus manos odio de regalo?

A B

¿Quién con tanta ira te lastima?

C#m B F#m A

¿Cómo pudo la inocencia convertirse en destrucción?

E B

¿Quién te habrá robado el mundo en un disparo?

C#m A

¿Quién le puso precio a tu vida?

E B C#m

https://www.coveralia.com/acordes/soldado-de-papel--feat--tomatito--david-bisbal.php

¿Cómo vive la conciencia con tanto dolor?

A C#m7

Dime ¿quién? ¿cómo? y ¿por qué?...





Solo guitarra:

B A C#m7

e -----9--7--9-----9--7---------------------------------------------

B --9-----------9--------10--9----9--9h10p9p7---9---7-7h9p7---------

G -----6--4--6-----6--4---------------------------9---------9-8-6---

D --6-----------6--------7---6--------------------------------------

A ------------------------------------------------------------------

E ------------------------------------------------------------------



B F#m

e ----4-7--7p4h5h7p5p4-----4------4---------------------------------

B --5------------------7-----5-7----5-4-5--4------------------------

G -------------------------------------------6-4-6-5--4-2-1-2p1-----

D --------------------------------------------------------------4s6-

A ------------------------------------------------------------------

E ------------------------------------------------------------------



C#m B A

e -4h2-2--------------------------------------------------------------

B -------5-4-2---4-2h4------------------------------------------------

G ---------------------4h6-2h4-1h2------------------------------------

D ---------------------------------4h6-2-4-1h2------------------------

A ---------------------------------------------4h6-2-4-0h2-----2-4-6--

E ---------------------------------------------------------4h5--------



B C#m7 B

e -----------------------------------------9s11----------11-11-12----

B -----------------------9-10-12p9----9-10------14---9------------14-

G ----------------8-9-11-----------11--------------------------------

D ---6p4h6s7---11----------------------------------------------------

A -------------------------------------------------------------------

E -------------------------------------------------------------------



F#m

e -----------------------------12-16-----*

B --------------------12h14-14-----------*

G -----------11h13-14--------------------*

D --11h13-14-----------------------------*

A ---------------------------------------*

E ---------------------------------------*





C#m B

¿Quién puso en tus manos odio de regalo?

A B

¿Quién con tanta ira te lastima?

C#m B F#m A

¿Cómo pudo la inocencia convertirse en destrucción?

E B

¿Quién te habrá robado el mundo en un disparo?

C#m A

¿Quién le puso precio a tu vida?

E B C#m

¿Cómo vive la conciencia con tanto dolor?

A B C#m7

Dime ¿quién? ¿cómo? y ¿por qué?... soldado de papel





Final

C#m11

e ------------------------------------------2--------*

B ---------------------------------5-------5---------*

G --6----------------------------4--------4----------*

D -----7-9-6-------------------2---------2-----------*

A -----------7p6h7---6h7--4-----------4--------------*

E ---------------------------------------------------*





Letra subida por: Anónimo

Discos en los que aparece este acorde: Premonicion

El acorde de Soldado De Papel (Feat. Tomatito) de David Bisbal es una versión de la canción original realizada por colaboradores/usuarios de Coveralia.

¿Has encontrado algún error en esta página? Envíanos tu corrección del acorde