música
Buscador

Acorde de Soul To Squeeze - Red Hot Chili Peppers

Letra de Soul To Squeeze

  

|--5---8--10----8----5----8---5----1------5----8---^5-----8---10-----10---8------^5-----------

|---------------------------------------------------------------------------------------------

|---------------------------------------------------------------------------------------------

|---------------------------------------------------------------------------------------------

|---------------------------------------------------------------------------------------------

|---------------------------------------------------------------------------------------------



F C Dm Bb

I got a bad disease

Dm F C Bb

From my brain is where I bleed

F C Dm Bb

Insanity it seems

Dm F C Bb

It's got me by my soul to squeeze

F C Dm Bb

Wear all the love from me

Dm F C Bb

With all the dyin' trees I scream

F C Dm Bb

The angels in my dream, yeah

Dm F C Bb

They turned to demons of greed, that's me



Refrão:



F C

Where I go I just don't know

Dm Bb

I got to, got to, gotta take it slow

F C

When I have found my peace of mind

Dm Bb

I'm gonna give ya some of my good time



F C Dm Bb

Today love smiled on me

Dm F C Bb

It took away my pains and pleads

F C Dm Bb

Oh, let your ride be free

Dm F C Bb

You gotta let it be, oh yeah





Refrão



ocultar esta pestaña Solo:



|--5----------5----------5--5--6--8--5--5------------|--5-----------5---------------------------

|----8--6--8----6-^6/7---------------------8--6-----6|-----8--6--8-----^6/7---------------------

|------------------------------------------------7---|------------------------------------------

https://www.coveralia.com/acordes/soul-to-squeeze-red-hot-chili-peppers.php

|----------------------------------------------------|------------------------------------------

|----------------------------------------------------|------------------------------------------

|----------------------------------------------------|------------------------------------------







|--5--5--8--10--8--5----------------------------------------------------------------------------

|---------------------8--6--8-------------------------------------------------------------------

|------------------------------7----------------------------------------------------------------

|-----------------------------------the 7 is together with the instrumental that comes next!-----------------

|-----------------------------------------------------------------------------------------------

|-----------------------------------------------------------------------------------------------





F C Dm Bb

So polite indeed

Dm F C Bb

Well I got everything I need

F C Dm Bb

I'll make my days a breeze

Dm F C

And take away my self-destruction

F C

It's bitter, baby, and it's very sweet

Dm Bb

On a roller coaster, but I'm on my feet

Dm F

Take me to the river, let me on your shore

C Bb

Well, I'll be coming back, baby, I'll be coming back for more

F C

Doo-doo-doo-ding-go-sing-a-don-bong

Dm Bb

Go-ding-ba-damba-somba-nomba-cong-gong-ding

Dm F

I cannot forget, but I will not endeavour

Dm Bb

Simple pleausures are more special, but I won't regret it never





Repete Refrão mais essa parte que está abaixo





F C

Where I go I just don't know

Dm Bb

I might end up somwhere in Mexico

F C

When I have found my peace of mind

Dm Bb

I'm gonna keep ya for the end of time



Letra subida por: Anónimo

El acorde de Soul To Squeeze de Red Hot Chili Peppers es una versión de la canción original realizada por colaboradores/usuarios de Coveralia.

¿Has encontrado algún error en esta página? Envíanos tu corrección del acorde