música
Buscador

Acorde de Soy Así - Elefante

Letra de Soy Así

(La primera estrofa es un rasgueo en cada tono solamente) 



G D

A veces gano a veces pierdo

Am C G

Pero prefiero ver la luz y ver el vaso medio lleno

D Am

Y soy así igual que tu

C G

Me gusta ver caer la tarde frente al mar

Am C

Me gusto mas la luna si tu estas, si tu estas



(Aqui ya empiezas a rasguear)



G D

Algunas madrugadas vuelo

Am C G

Me cuelgo de una nube y quiero cambiar todo con un verso

D

Y que más da

Am C

Si nadie muere por creer y por soñar

G Am C

Si nadie muere por buscar una verdad, una verdad



G D

Me gusta cuando ríes, me gusta verte así

Am C

Me gusta que en tus ojos se dibuje el porvenir

G D

Y si alguna mañana el mundo se te cae

Am c

Abraza una esperanza que todo puede pasar

G

Me gusta cuando riees





G D

A veces gano a veces pierdo

Am C G

Pero prefiero naufragar a no salir nunca del puerto

D Am

Y soy así igual que tu

C

Quiero morir en el intento una vez más

G Am

Quiero vivir y no arrepentirme jamás

C

Nunca más



G D

https://www.coveralia.com/acordes/soy-asi-elefante.php

Me gusta cuando ríes, me gusta verte así

Am C

Me gusta que en tus ojos se dibuje el porvenir

G D

Y si alguna mañana el mundo se te cae

Am C

Abraza una esperanza que todo puede cambiar

G

Me gusta cuando riees





Solo:



Tocas estos acordes durante el solo G D Am C G D Am C



E|----------------------------------------------|

B|------8---10--7-8-10-10-----10-12-10-8--------|

G|--7/9---9------------------------------7-7----|

D|----------------------------------------------|

A|----------------------------------------------|

E|----------------------------------------------|



E|-----------------------3--5--7--10--5---------|

B|--12-------------------5--7--9—-12—-7---------|

G|----11-11-12-11-------------------------------|

D|----------------------------------------------|

A|----------------------------------------------|

E|----------------------------------------------|



E|--3--5--7—-12-----8-8-8-7-7-5-5-3-3-3/5-5-7-7-|

B|--5--7--9-----7-------------------------------|

G|----------------------------------------------|

D|----------------------------------------------|

A|----------------------------------------------|

E|----------------------------------------------|



G D

Me gusta cuando ríes, me gusta verte así

Am C

Me gusta que en tus ojos se dibuje el porvenir

G D

Y si alguna mañana el mundo se te cae

Am C

Abraza una esperanza que todo puede cambiar

G D

Me gusta cuando riees

Am C

Cuando rieeeesss.







Letra subida por: Anónimo

Discos en los que aparece este acorde: Resplandor

El acorde de Soy Así de Elefante es una versión de la canción original realizada por colaboradores/usuarios de Coveralia.

¿Has encontrado algún error en esta página? Envíanos tu corrección del acorde