música
Buscador

Acorde de Sunshine - Aerosmith

Letra de Sunshine

Intro: F#m B  D A ( 4x )  riff 1, riff 2, riff 1, riff 2 



Riff 1:

E -----------------------------------------------

B------------------------------------------------

G------------------------------------------------

D--------------------------4---------------------

A---------2---------5-5-------0------------------

E----2-----------------------------4---2---------



Riff 2:

E---------------------------------------------------

B---------------------------------------------------

A---------------------------------------------------

D------------------------2--------------------------

A ------2---------5-5-------------------2---4-----

E---2--------------------------5----5------------2-



Riff 3: F#m

E---------------------2----------------

B---------------------2----------------

G---------------------2---------------

D---------------------4---------------

A----------2-----4---4------------------

E-----5---------------2----------------





F#m B D Abm Gm

I sold my soul for a one night stand

F#m B D Abm Gm ( riff 3 )

I followed Alice into Wonderland

F#m B D Abm Gm

I ate the mushroom and I danced with the queen

D Ab Gm C#5 B5 Ab5 G#5

Yeah we danced in between all the lines

F#m B D Abm Gm

I followed daylight right into the dark

F#m B D Abm Gm (riff 3 )

Took to the Hatter like a walk in the park

F#m B D Abm Gm

But then I met her yeah she felt so right

D Abm Gm C#5 B5 Ab5 G#5

No child of the night yeah was she

Refrão:

F# D B

They called her sunshine

G# F# D

The kind that everybody knows

C# B

Yeah yeah

F# D B

Sunshine

G# F# D

She finer than a painted rose

C# B

Yeah yeah

C# B Ab G

Sun..shine yeah



F#m B D Abm Gm

Her kind of love's what I adore

https://www.coveralia.com/acordes/sunshine-aerosmith.php

F#m B D Abm Gm ( riff 3 )

What kind of trouble am I in for

F#m B D Abm Gm

My kind of heaven lies at hell's back door

D Abm G C#5 B5 A5 G#5

And I got more than I need

F# D B

Cuz I need sunshine

G# F# D

The kind that everybody knows

C# B

Yeah yeah

F# D B

My sunshine

G# F# D

She finer than a painted rose

C# B

Yeah yeah

C# B Abm G

Sunshine yeah





Solo: C# B Abm B C# B Abm B C# B Abm B C# B

Abm G# G F# (aqueles sons eletronicos)





F#m B D Abm Gm

I got the karma but it don't come free

F#m B D Ab Gm ( riff 3 )

I'll chase that rabbit up her bodi tree

F#m B D Abm Gm

The caterpillar's tryin' to cop a plea

D Abm Gm C#5 B5 A5 G#5

But the smoke ain't got nothin' on me

F# D B

Ya gotta have my sunshine

G# F# D

The kind that everybody knows

C# B F# D B

Yeah yeah My sunshine

G# F# D

She finer than a painted rose

C# B

Yeah yeah

F# D B

She's sunshine

G# F# D

The kind that everybody knows

C# B

Yeah yeah

F# D B

Sunshine

G# F# D

She finer than a painted rose

C# B

Yeah yeah

C# B

Sunshine

C# B Abm G# G F#

Sunshine yeah

Letra subida por: Anónimo

Discos en los que aparece este acorde: Just Push Play

El acorde de Sunshine de Aerosmith es una versión de la canción original realizada por colaboradores/usuarios de Coveralia.

¿Has encontrado algún error en esta página? Envíanos tu corrección del acorde